Chet Atkins

Cascade Tabs



More from Chet Atkins

Chet Atkins Tabs
Chet Atkins Chords
Chet Atkins Lyrics

Cascade 
Chet Atkins






                                                                             
E||---------------------|-----------------0--------|-----------0-------0----|
B||---------------------|--------1-----------------|--1----------------1----|
G||---------------------|-----2--------2--------2--|--------2----------2----|
D||------2----3----4----|--5--------5--------5-----|-----5--------5---------|
A||---------------------|--------------------------|------------------------|
E||---------------------|--------------------------|------------------------|


                                                                               
-----------------0--------|-----------0-------0----|-----------------0--------|
--------1-----------------|--1----------------1----|--------1-----------------|
-----2--------2--------2--|--------2----------2----|-----2--------2--------1--|
--4--------4--------4-----|-----4--------4---------|--3--------3--------3-----|
--------------------------|------------------------|--------------------------|
--------------------------|------------------------|--------------------------|


                                                                    
-----------3-------0----|-----------3/-------|--8/--------3--------|
--0---------------------|--1--------5/-------|--10/-------5--------|
--------1-------1-------|--------------------|---------------------|
-----3------------------|--2-----------------|---------------------|
------------------------|--------------------|---------------------|
------------------------|--------------------|---------------------|


                                                                               
-----------------0--------|-----------0-------0----|-----------------0--------|
--------1-----------------|--1----------------1----|--------1-----------------|
-----2--------2--------2--|--------2----------2----|-----2--------2--------2--|
--5--------5--------5-----|-----5--------5---------|--4--------4--------4-----|
--------------------------|------------------------|--------------------------|
--------------------------|------------------------|--------------------------|


                                                                             
-----------0-------0----|-----------------0--------|-----------3-------0----|
--1----------------1----|--------1-----------------|--0---------------------|
--------2----------2----|-----2--------2--------1--|--------1-------1-------|
-----4--------4---------|--3--------3--------3-----|-----3------------------|
------------------------|--------------------------|------------------------|
------------------------|--------------------------|------------------------|


                                                                 
----------------0----|-------------------|-----------------0----|
--1--------4---------|--1----------------|------------3---------|
----------------0----|-------------------|-------4--------------|
--2--------4---------|--2----------------|--6-------------------|
---------------------|-------------------|----------------------|
---------------------|-------------------|----------------------|


                                                             
------------------|-----------------0----|------------------|
------------------|------------2---------|------------------|
------------------|-------4--------------|------------------|
------------------|--5-------------------|------------------|
------------------|----------------------|------------------|
------------------|----------------------|------------------|


                                                                 
-----------------0----|------------------|-----------------5----|
------------1---------|------------------|------------0---------|
-------2--------------|------------------|-------2--------------|
--4-------------------|------------------|--3-------------------|
----------------------|------------------|----------------------|
----------------------|------------------|----------------------|


                                                                        
------3------------|-----------------0--------|-----------0-------0----|
-------------------|--------1-----------------|--1----------------1----|
-------------------|-----2--------2--------2--|--------2----------2----|
-------------------|--5--------5--------5-----|-----5--------5---------|
-------------------|--------------------------|------------------------|
-------------------|--------------------------|------------------------|


                                                                               
-----------------0--------|-----------0-------0----|-----------------0--------|
--------1-----------------|--1----------------1----|--------1-----------------|
-----2--------2--------2--|--------2----------2----|-----2--------2--------1--|
--4--------4--------4-----|-----4--------4---------|--3--------3--------3-----|
--------------------------|------------------------|--------------------------|
--------------------------|------------------------|--------------------------|


                                                                   
-----------3-------0----|----------------0----|-------------------|
--0---------------------|--1--------4---------|--1----------------|
--------1-------1-------|----------------0----|-------------------|
-----3------------------|--2--------4---------|--2----------------|
------------------------|---------------------|-------------------|
------------------------|---------------------|-------------------|


                                                                              
--8----------------------|-------------------------|-------------------------|
--8----8--------8--------|--8----8--------8--------|--7----7--------7--------|
--5----5h-0-----5h-0-----|--5----5h-0-----5h-0-----|--5----5h-0-----5h-0-----|
-------------7--------7--|-------------7--------7--|-------------7--------7--|
-------------------------|-------------------------|-------------------------|
-------------------------|-------------------------|-------------------------|


                                                                              
-------------------------|-------------------------|-------------------------|
--7----7--------7--------|--6----6--------6--------|--6----6--------6--------|
--5----5h-0-----5h-0-----|--5----5h-0-----5h-0-----|--5----5h-0-----5h-0-----|
-------------7--------7--|-------------7--------7--|-------------7--------7--|
-------------------------|-------------------------|-------------------------|
-------------------------|-------------------------|-------------------------|


                                                                           
-----------3/-------|--8------------------|--12--10--8--------------------|
--5--------5/-------|--10------8----------|-------------12--10--8---------|
--5-----------------|----------9----------|------------------------10--9--|
--------------------|---------------------|-------------------------------|
--------------------|---------------------|-------------------------------|
--------------------|---------------------|-------------------------------|


                                                                       
-----------------------------|---------------------|------------------|
-----------------------------|---------------------|------------------|
--7--------------------------|---------------------|------------------|
-----10--9--7----------------|---------------------|------------------|
---------------10--8--7------|---------------------|------------------|
-------------------------10--|--8------7------5----|------------------|


                      
Get this song at amazon.com      Ebay     Ringtones Ringtones  


Learn to play: Songwriting, Piano, Harmonica, Guitar
More Chet Atkins lyrics available at Muzikum

Related Chet Atkins Tabs

Cascade tabs
In The Mood - Fingerstyle tabs
Dizzy Fingers tabs
My Funny Valentine tabs
City Of New Orleans tabs
Classical Gas tabs
Sugar Bush tabs
Ave Maria tabs
Freight Train tabs
Waltz For The Lonely tabs
Amazing Grace tabs
The Poor People Of Paris tabs
Mr. Sandman(harp) tabs
Yankee Doodle Dixie tabs
Unknown tabs
Foggy Mountain Breakdown tabs
Struttin tabs
Entertainer tabs
Vincent tabs
La Madrugada tabs


Guitar Tabs









All tabs are property and copyright of their owners. All tabs provided for educational purposes only. Privacy Policy, DMCA

Online converter - videoconverter.com