Chet Atkins

Blue Angel Tabs



More from Chet Atkins

Chet Atkins Tabs
Chet Atkins Chords
Chet Atkins Lyrics

Song: Blue Angel
Artist: Chet Atkins

Transcribed by nufan@m-net.arbornet.org


Any comments/suggestions/corrections are welcome.


Capo on 1st fret

NOTE - The fingering here is NOT relative to the capo, they are the exact frets. 



e--13-1-11-1-9-1-8-1-9-1-6-1-9-1-8-1----1----1----1----1---1----1----1----1-
b------------------------------------11---10--------------------------------
G----------------------------------------------11---10---8------------------
D------------------------------------------------------------11---10---8----
A---------------------------------------------------------------------------
E---------------------------------------------------------------------------

-13-1-11-9-1-8-1----1------13-11-9-------------------------------------------
-----------------11---9-13---------13-11-9-8---------------------------------
---------------------------------------------10-9-------------------------10-
--------------------------------------------------11-10-8--------------------
----------------------------------------------------------11-10-8-9-8-7-8----
-----------------------------------------------------------------------------

-13-1-11-1-9-1-8-1-9-1-6-1-9-1-8-1----1----1----1----1----1-------------------
-----------------------------------11---10---11---10--------------------------
-------------------------------------------------------11---10-8--------------
-----------------------------------------------------------------11-10-8-7----
---------------------------------------------------------------------------9-8
------------------------------------------------------------------------------

--------------9----8-------13-11-9------------------------------1-13---1-
---------7-11---10---11------------13-11-10------------------------------
-------8----------------10------------------11-8--------------------10---
-----8-------------------------------------------10-7--------------------
-6-9--------------------------------------------------9-6-----8----------
----------------------------------------------------------8-6------------


Time: 0:17-0:49

||-13-12-11-1-15-1----1-13-11-10-1-13-1----1-11-10----1-11-1----1----1----1-10----------------------
||-----------------13-------------------11---------13--------10---13---11------13-11-10----------13-
||--------------------------------------------------------------------------------------12-11-10----
||--------------------------------------------------------------------------------------------------
||--------------------------------------------------------------------------------------------------
||--------------------------------------------------------------------------------------------------

---------------------------------------------------10-------------------1-13----1-
---------13----------13----------13----------13-13----13-11-10-------13-----------
-------9----------10----------11----------12-------------------12-10---------10---
-10-10------10-10-------10-10-------10-10-----------------------------------------
----------------------------------------------------------------------------------
----------------------------------------------------------------------------------


-13-12-11-1-15-1----1-13-11-10-1-13-1----1-11-10----1-11-1----1----1----1-10----------------------
-----------------13-------------------11---------13--------10---13---11------13-11-10-------------
--------------------------------------------------------------------------------------12-10----12-
--------------------------------------------------------------------------------------------13----
--------------------------------------------------------------------------------------------------
--------------------------------------------------------------------------------------------------

----------------------1-1-13----1-13-12-11----------------------------1-13--1-|R|
-13-11-10-11-10----------------------------13-10------------------------------|E|
----------------12-10--------10------------------12-10-------------10-----10--|P|
-------------------------------------------------------13-12-10---------------|E|
----------------------------------------------------------------13------------|A|
------------------------------------------------------------------------------|T|


Time: 0:50

-13-1-11-1-9-1-8-1-9-1-6-1-9-1-8-1----1----1----1----1---1----1----1----1-
-----------------------------------11---10--------------------------------
---------------------------------------------11---10---8------------------
-----------------------------------------------------------11---10---8----
--------------------------------------------------------------------------
--------------------------------------------------------------------------

-13-1-11-9-1-8-1----1------13-11-9-------------------------------------------
-----------------11---9-13---------13-11-9-8---------------------------------
---------------------------------------------10-9-------------------------10-
--------------------------------------------------11-10-8--------------------
----------------------------------------------------------11-10-8-9-8-7-8----
-----------------------------------------------------------------------------

-13-1-11-1-9-1-8-1-9-1-6-1-9-1-8-1----1----1----1----1----1-------------------
-----------------------------------11---10---11---10--------------------------
-------------------------------------------------------11---10-8--------------
-----------------------------------------------------------------11-10-8-7----
---------------------------------------------------------------------------9-8
------------------------------------------------------------------------------

--------------9----8-------13-11-9-----------------------------------
---------7-11---10---11------------13-11-10--------------------------
-------8----------------10------------------11-8---------------------
-----8-------------------------------------------10-7----------------
-6-9--------------------------------------------------9-6------------
----------------------------------------------------------8-6~~------


Time: 1:07                               
-----------------------------------------------------------------------------13----13--13-13-13-
-11----------10----------8------11--6------7---9----6---8---9----11----13-------11--------------
-10----------10-----------------------7-------------------9---10----12----14----10--------------
-12--12-12---12--12-12------10~~~~~---8------8---10---6---8---10----13----15----12--------------
-----13-13-------12-12------10~~~~~----------9---11---8-----------------------------------------
------------------------------------------------------------------------------------------------

-----13--13-13-13-----13--13-13-13----13-11----------
-10-----------------9---------------8----------------
-10----------------10---------------8----------------
-13----------------12--------------10----------------
-----------------------------------------------------
-----------------------------------------------------

-11-13-11-13-14-11--------13-10-13-10----10-13-12-11--------------------------
-------------------13-11-----------------------------13-10----------10-13-11--
--------------------------------------10-------------------12-10-12-----------
------------------------------------------------------------------------------
------------------------------------------------------------------------------
------------------------------------------------------------------------------


Time: 1:23

-------13----------13----------13----------13----------11----------11----------
----------15----15----15----------15----15----15----------13----13----13-------
-14-15-------15----------15-14-------14----------14-12-------12----------12-10-
---------------------------------------------------------
Get this song at amazon.com      Ebay     Ringtones Ringtones  


Learn to play: Songwriting, Piano, Harmonica, Guitar
More Chet Atkins lyrics available at Muzikum

Related Chet Atkins Tabs

Sugar Bush tabs
The Poor People Of Paris tabs
City Of New Orleans tabs
Yakety Axe tabs
Mr. Guitar tabs
Manha De Carnaval tabs
Struttin tabs
Mr Sandman tabs
Ave Maria tabs
I Still Can't Say Good Bye intro tabs
Entertainer tabs
Waltz For The Lonely tabs
Amazing Grace tabs
Read My Licks tabs
Mr Bojangles tabs
Vincent tabs
Classical Gas tabs
My Funny Valentine tabs
Unknown tabs
Wilwood Flower - Fingerstyle tabs


Guitar Tabs









All tabs are property and copyright of their owners. All tabs provided for educational purposes only. Privacy Policy, DMCA