Brooks & Dunn

Brooks & Dunn - Play Somethin' Country solo guitar tab

Here is the solo! (Cool Solo!) I tried to get it as close as I could.

Also this is the live version from the CMA's

E-----------------------------------------------------------

B-----------------------------------------------------------

G---3~~~p2p0-3~~~p2p0-3~~~p2p0-3~~~2p0-------3~~~2p0-3~~2p0-

D--5----------------------------------3-0-3-5---------------

A-----------------------------------------------------------

E-----------------------------------------------------------

E-----------------------15----------------------------------

B-----------------------15b-15r-13-11-10-8-10bp8h10b-10r-8--

G-3~~~p2p0--9b-9r-7-5---------------------------------------

D--------------------7-5------------------------------------

A-----------------------------------------------------------

E-----------------------------------------------------------

E----------16-------------------18b-18p15-13-10-8-6---------

B-14b-14/16--14b-14/16-14b-14/16-------------------6b-4-6b--

G-----------------------------------------------------------

D-----------------------------------------------------------

A-----------------------------------------------------------

E-----------------------------------------------------------

E-----------------------------------------------------------

B-------------6--6--6-12--15--17--18-------18-------18------

G-------------5b-5b-3-11b-14b-16b---17-15----17-15----17-15-

D----3---3---3----------------------------------------------

A-3h5-3h5-3h5-----------------------------------------------

E-----------------------------------------------------------

E----------------

B----18b~~~~~~~~~

G--19------------

D----------------

A----------------

E----------------

90% correct. or more, please comment with any corrections or any thing

Just remember it's LIVE!

Get this song at:  amazon.com sheetmusicplus.com

Share your thoughts

0 Comments found