Brooks & Dunn

Brooks & Dunn - My Next Broken Heart lead guitar tab

Brooks and Dunn - My Next Broken Heart (with lead guitar)

By axehappy - axehappy@

Number marked with a star, e.g. (*1), indicate a lead fill.

G = 320003 D = xx0232

C = x32010 G7 = 320001

F = x33211

***********************************************************************

G D C G D G D

INTRO

G D

You picked me up, you shot me down.

G7 C

Steppin' out all over town.

G D

Drove me back to drinkin' in this bar.

G D

I've found myself a brand new friend,

G7 C

I'm headed down that road again,

G D G D

I'm workin' on my next broken heart.

G D *1

Happy or sad, its hard to tell,

G7 C *2

You taught me how to hurt so well,

G D *3

When it comes to love I know my part.

G D *1

Well I play this game that I can't win,

G7 C *4

I'll be somebody's fool again,

G D G *5

Workin' on my next broken heart.

C F C G

Well I thought all day long you'd be the death of me,

C F C D

But I've met one tonight who wants what's left of me.

G C

I've seen that look before,

G C

She'll tear my world apart.

G D G

I'm workin' on my next broken heart.

D G D G C G D

LEAD SOLO

G D G C G D G

PEDAL STEEL SOLO

C F C G

Yeah, I thought all day long you'd be the death of me,

C F C D

But I met one tonight who wants what's left of me.

G C

I've seen that look before,

G C

She'll tear my world apart.

G D G C

I'm workin' on my next broken heart.

G D G *6 C

I'm workin' on my next broken heart.

G D G *7

Oh, I'm workin' on my next broken heart.

***********************************************************************

LEAD GUITAR PARTS

/ = slide up \ = slide down p = pulloff

b = bend br = bend & release bh = bend & hold

r = release held bend pbr = pre-bend & release

***********************************************************************

INTRO

E---------------------------------------------------------------------|

B---------------------------------------------3-----------------------|

G----------------------------------------0-2/4-4\2-0-2-0--------------|

D--0---0---0--------0-2-0-2/3\2p0-2-0-0-2---------------2-0-5--5------|

A---3/5-3/5-3-1---2-----------------------------------------5b-5br-3--|

E---------------3-----------------------------------------------------|

Fill *1 Fill *2

E-----------| E--------------------|

B--3-/5-\3--| B--------------------|

G--2-/4-\2--| G--------------------|

D--3-/5-\3--| D--0----5------------|

A-----------| A---5/7--7\5-3-------|

E-----------| E-------------5br-3--|

Fill *3 Fill *4

E-----5-----3--2--0----------------| E----------------|

B-----7-p0--5--3--1-----3----3-----| B----------------|

G--5/7--p0-5---2--0--5bh-5r-5-3b---| G----------------|

D-------------------------------5--| D-----5--3-------|

A----------------------------------| A--5bh-5r----5---|

E----------------------------------| E---------5/7-3--|

Fill *5

E--3---------------|

B--3---------------|

G---2pbr-0-2-0-0---|

D-------------2----|

A------------------|

E---------------3--|

LEAD GUITAR SOLO

E----------------------------------------------------------------

B--------------------------------------------------3-5---5-5-5---

G-----------------------------------------------2/4--5br-3-5-3---

D--0---0---0--------0-2-0-2/3\2p0-2-0------4/5-7--------------5--

A---3/5-3/5-3-1--1/2------------------7\5/7----------------------

E--------------3-------------------------------------------------

E-----------------------------------11-14--14--------------------

B---------------1----3---6---8-10/12---13b-13-13---------12-10---

G---------0--0-0--2/4-5/7-7/9-----------------12pbr-p10--12-10b--

D------0-2--0-2----------------------------------------12--------

A-----2-3--2-----------------------------------------------------

E--2h3-----------------------------------------------------------

Fill *6

E---------------------| E-----------------------|

B---------------------| B-------6--------5-4-3--|

G-----------9/11--9---| G--0-5/7-7\5-3-3-5-4-3--|

D--12-10---10/12-10---| D-------------5---5-----|

A-------12------------| A-----------------------|

E---------------------| E-----------------------|

Fill *7

E--3--3--3-----------------|

B--3--3--3-----------------|

G--2b-2b-2r-0--------------|

D------------2-0---0-------|

A---------------1h2--------|

E-------------------5br-3--|

Get this song at:  amazon.com sheetmusicplus.com

Share your thoughts

0 Comments found