Brooks & Dunn

Brooks & Dunn - Boot Scootin' Boogie lead guitar tab

This is the main lead in the song.............

E----------------------------------------------------------------------------------

B----------------------------------------------------------------------------------

G----------------------------------------------------------------------------------

D----------------------------------------------------------------------------------

A-----------2--4-2-------------2--4-2-------------2---4-2-------------2---4-2------

E---0-0-3-4---0--------0-0-3-4---0--------0-0-3-4---0--------0-0-3-4----0----------

E----------------------------------------------------------------------------------

B----------------------------------------------------------------------------------

G----------------------------------------------------------------------------------

D-------------2-2-4-2-----------2-2-4-2--------------------------------------------

A----0-0-4-4------------0-0-4-4--------------------2---4-2------------2---4-2------

E------------------------------------------0-0-3-4---0--------0-0-3-4---0----------

E----------------------------------------------------------------------------------

B----------------------------------------------------------------------------------

G----------------------------------------------------------------------------------

D---------------4-4-6-6------------2-2-4-2-----------------------------------------

A----2-2-4/6-6-------------0-0-4-4--------------------2---4-2----------------------

E---------------------------------------------0-0-3-4---0--------------------------

Get this song at:  amazon.com sheetmusicplus.com

Share your thoughts

0 Comments found