Brad Paisley

Brad Paisley - Make A Mistake intro guitar tab

Brad Paisley - Make A Mistake (intro)

By axehappy - axehappy@

Oh my god!!

This song is too difficult for words!

Here's the intro, I dunno about some of the chord names...lol

But all the notes are right.. :o)

**************************************************************************

/ = slide up h = hammer-on

br = bend & release b = bend

**************************************************************************

Am Gm Fm Abdim G/B C E/Ab Am Fm/B Am

E-------8-7----5-3----3-1----0-------------0-------7-5--3-1-----0----

B-----10------3------1-------0----3~~---1h3--5-3/5-5-5---------1-3-1-

G----9-------3------1------------0-----0-----4----------1-1---2------

D--10-------5------3------------0-----2--------3/5-----------2-------

A------------------------------2-----3-----------------2----0--------

E-------------------------2/4----------------4-----------------------

C9 F Ddim Am Abdim Am Fmaj7 G7

w/g bender

E------0-----------------------------------------------0------------|

B-----3-3---------0h1-----6-6/8-5------3h5-1-------0-1-1-3/5-3------|

G----3----------2---------7-7/9-5----4-4---2------2----------2brb---|

D---2---------3----------6----------3------------3-----3-3/5-3------|

A--3--------3---------3/5-------0-0--------0----3-------------------|

E---------1------------------------4---------0-1--------------------|

Get this song at:  amazon.com sheetmusicplus.com

Share your thoughts

0 Comments found