Boston

Boston - Pace Of Mind guitar tab

intro(x2)

e-------------------------------------------------------------------------

b---------------------8--8------------------------------------------------

g--9--9-5--5-5-5-5-5--7--7-8--8-8-----------------------------------------

d--9--9-5--5-5-5-5-5--5--5-7--7-7-0---------------------------------------

a--7--7-3--3-3-3-3-3-------5--5-5-0---------------------------------------

e---------------------------------0---------------------------------------

than(x2)

e---------------------------------------------------------------------------

b---------------------------------------------------------------------------

g-----------------------------------------2---------------------------------

d--5-4---2~---2-2-4-5-7-4-5-4----2~--2-2-4--5-4-5-4----2--------------------

a------5----------------------5---------------------5-----------------------

e---------------------------------------------------------------------------

chorus (x3)

e-------------------------------------------------

b----------8~-------------------------------------

g--9~--5~--7~--8~---------------------------------

d--9~--5~--5~--7~---------------------------------

a--7~--3~------5~---------------------------------

e-------------------------------------------------

than end chourus like this

e-----------------------------------------------

b----------8~-----------------------------------

g--9~--5~--7~--8~--5~~--------------------------

d--9~--5~--5~--7~--5~~--------------------------

a--7~--3~------5~--3~~--------------------------

e-----------------------------------------------

~ = let rin

thats about it, for the outro just play the second part of the intro over and over.

from failure dan

Get this song at:  amazon.com sheetmusicplus.com

Share your thoughts

0 Comments found