Boehse Onkelz

Boehse Onkelz - Wir Sind Nicht Allein guitar tab

Author/Artist: Boehse Onkelz

Title: wir sind nicht allein

Album: Buch der Erinnerung

Transcribed by: Heelflip

Email: BoehserOnkelPe@aol.com

Ich hoffe das die Tabulatur gelungen ist.Es war mein erster Versuch

-|----------------------------------------------------------------------------

-|----------------------------------------------------------------------------

-|----------------------------------------------------------------------------

-|-2---------2-2---------2-2-1---1-2---2-15---15---2-2-1---1-2---2-15---15----

-|-2-3-2-----2-2-3-2-----2-2-1---1-2---2-15---15---2-2-1---1-2---2-15---15----

-|-------3-2---------3-2------------------------------------------------------

Intro                                                                        

-|----------------------------------------------------------------------------

-|----------------------------------------------------------------------------

-|----------------------------------------------------------------------------

-|-2-2-2-2-2-2-3-3-3-3-0-5-4-3------------------------------------------------

-|-2-2-2-2-2-2-3-3-3-3-0-5-4-3------------------------------------------------

-|-x-x-x-x-x-x-1-1-1-1-0-3-2-1------------------------------------------------

Strophe                                                                      

-|----------------------------------------------------------------------------

-|----------------------------------------------------------------------------

-|----------------------------------------------------------------------------

-|----------------------------------------------------------------------------

-|-0-0-2-0-3-0-2-5-0-3-0-2-3--------------------------------------------------

-|----------------------------------------------------------------------------

Refrain

Get this song at:  amazon.com sheetmusicplus.com

Share your thoughts

0 Comments found