Boehse Onkelz

Boehse Onkelz - Wieder Mal Nen Tag Verschenkt2 guitar tab

Boehse Onkelz - Wieder mal nen Tag verschenkt

---------------------------Intro----------------------------

Guitar 1: Em G Am Em  (Basic Riff)

Guitar 2:

       Em               G             Am      Em

E|----|----------------|-------------|-5-8-5----------------------|

B|--8-|5-5------5--8-5-|-8-8-5---8---|-------8-5-8-5-85~-5--------|

G|----|-----7-4--------|-------7----7|---------------------7-4----|

D|----|----------------|-------------|----------------------------|

A|----|----------------|-------------|----------------------------|

E|----|----------------|-------------|----------------------------|

  Em        G               Am           Em

E|---------|-----------6---|5-5-5------|-------------|------------|

B|-5-85----|-8-85---8---8--|-----8-5---|--5-85-85~---|5-----------|

G|------7--|------7--------|-----------|-------------|--7-4-------|

D|---------|---------------|-----------|-------------|------------|

A|---------|---------------|-----------|-------------|------------|

E|---------|---------------|-----------|-------------|------------|

---------------------------Verse 1---------------------------

Guitar 1 + 2:

     Em                          G

Ein  neuer Tag beginnt, auf der Suche nach dem Sinn,

     Am                                            Em

dem Sinn in meinem Leben, doch ich kann ihn nicht finden...

Guitar 2:

E|---------|

B|---------|

G|-4-7-4---|

D|---------|

A|---------|

E|---------|

Guitar 1 + 2:

Em  

War's das schon kann das alles sein?

     G                                 Am

was kommt danach, wann ist es vorbei,

                                   Em

wer kennt die antwort auf diese Fragen?

    Em

Die Tage vergehn, nichts passiert

G                

nichts ist geschehn und es rebelliert,

        Am                                     Em

In den Falten meines Hirns, in den Ecken meiner Seele, meiner Seeler, meiner

---------------------------Chorus (2x)------------------------

Guitar 1:

F           C                  G  

  Wieder mal 'nen Tag verschenkt

E|-5-3-0-------|

B|-------3-----|

G|-------------|

D|-------------|

A|-------------|

E|-------------|

Guitar 2:

  F          C               G

E|---------------|--------------|--5-3-0-------------------------|

B|---------------|--------------|--------3-----------------------|

G|-----------0-0-|-2-0----------|--------------------------------|

D|----0-2-0------|------2-0-----|--------------------------------|

A|--3------------|--------------|--------------------------------|

E|---------------|----------3---|--------------------------------|

---------------------------Solo 1------------------------------

Guitar 1: Em G Am Em

Guitar 2:

E|----------------|-------------6-6---|--5--5----5-----|---------------|

B|-8--5-5-----5---|-8-8-5----8------8-|-5----8-5---8-5-|-8-5-85--5-----|

G|-------7-4----7-|-------7-----------|----------------|-----------7-4--|

D|----------------|-------------------|----------------|---------------|

A|----------------|-------------------|----------------|---------------|

E|----------------|-------------------|----------------|---------------|

---------------------------Verse 2---------------------------

    Em

Die Tage vergehn, nichts passiert

G                

nichts ist geschehn und es rebelliert,

        Am                                     Em

In den Falten meines Hirns, in den Ecken meiner Seele

         Em

Ich hab nicht mehr lang gezecht, mich ins Koma gesoffen,

G                               Am  

oft gezielt doch nie getroffen,

                                  Em

ich weiss wie es ist der Arsch zu sein...

---------------------------Chorus (2x)------------------------

---------------------------Solo 2-----------------------------

Guitar 2: Em G Am C

Guitar 1:

   Em                    G

E|---------------------|------------------|

B|---------------------|------------------|

G|---------------------|------------------|

D|---------------------|-2-0---0----------|

A|-------2-------2-3-2-|-----3----2-3-3---|

E|-0-2-3---0-2-3-------|----------------3-|

Guitar 1: Em G Am Em

Guitar 2:

  Am                      C

E|-------5--------5-7-5--|-----------------|

B|-5-7-8----5-7-8--------|-5---5-----------|

G|-----------------------|---7---7-4-------|

D|-----------------------|----------5------|

A|-----------------------|-----------------|

E|-----------------------|-----------------|

  Em                  G

E|-12-10-12-10-12-12-|-12-10-------------------------|

B|-12-10-12-10-12-12-|-------12-10----12-10----------|

G|-------------------|-------------12-------12-11-12-|

D|-------------------|-------------------------------|

A|-------------------|-------------------------------|

E|-------------------|-------------------------------|

        Am                                    C

E|---------------12-10-12-10----|-17-15-12-------12~--------------|

B|------10/12-12-------------12-|----------15-12-----15-----------|

G|-9-12-------------------------|-----------------------12--------|

D|------------------------------|--------------------------14-----|

A|------------------------------|---------------------------------|

E|------------------------------|---------------------------------|

E|---------------12----12-12--------|

B|------------------15--------------|

G|--------12--15~-------------------|

D|-12/-14~--------------------------|

A|----------------------------------|

E|----------------------------------|

--------------------Piano Solo -------------------------------

Guitar 1 + 2: Em G Am C C

---------------------------Chorus (4x)------------------------

---------------------------Outro------------------------------

Guitar 1: Em G Am Em

Guitar 2:

E|-----12-12-10----12-|----3-3-0---3-|---5-5-----5-|-----12=--|

B|-11~----------12----|-2~-------3---|-5~----7-5---|-11~------|

G|--------------------|--------------|-------------|----------|

D|--------------------|--------------|-------------|----------|

A|--------------------|--------------|-------------|----------|

E|--------------------|--------------|-------------|----------|

Guitar 1:

E|-----------12--------|

B|---------0-----------|

G|-------0-------------|

D|-----2---------------|

A|---2-----------------|

E|-0-------------------|

I tabbed this song, from a version I downloaded with Morpheus,

I don't know which one. I guess it's the original one.

It's neither comparative with the Version of the "Live in Dortmund"-Album

(Solos are different), nor with any other Liveversions.

Enjoy it!

If you have any questions:

Max Arends

w3dmarine@hotmail.com

Get this song at:  amazon.com sheetmusicplus.com

Share your thoughts

0 Comments found