Boehse Onkelz

Boehse Onkelz - Nur Die Besten Sterben Jung Bass guitar tab

Intro:

G|--------|-------------|-------|-------------|-----|-----|---|

D|--------|-------------|-------|-------------|-----|-----|---| [x 2]

A|--2--3--|--2-3---5-3--|--2-3--|--2-3---5-3--|-----|-----|---|

E|--------|-------------|-------|-------------|--1--|--3--|---|

G|-------------------|-------------------|---------------------|----------------------|

D|-------------------|-------------------|---------------------|----------------------|

A|--2-3-0-0-0-0-0-0--|--2-3-0-0-5-3-0-0--|--2-3----------------|--2-3-------5-3-------|

E|-------------------|-------------------|--------0-0-0-0-0-0--|-------0-0-------0-0--|

G|-------------------|-------------------|-------------------|-------------------|

D|-------------------|-------------------|-------------------|-------------------|

A|-------------------|-------------------|-------------------|-------------------|

E|--1-1-1-1-1-1-1-1--|--1-1-1-1-1-1-1-3--|--3-3-3-3-3-3-3-3--|--3-3-3-3-3-3-3-3--|

Verse:

G|-------------------|-------------------|-------------------|-------------------|

D|-------------------|-------------------|-------------------|-------------------|[x3]

A|--0-0-0-0-0-0-0-0--|--0-0-0-0-0-0-0-0--|-------------------|-------------------|

E|-------------------|-------------------|--1-1-1-1-1-1-1-1--|--1-1-1-1-1-0-1-0--|

G|-------------------|-------------------|-------------------|-------------------|

D|-------------------|-------------------|-------------------|-------------------|

A|--0-0-0-0-0-0-0-0--|--0-0-0-0-0-0-0-0--|-------------------|-------------------|

E|-------------------|-------------------|--1-0-1-----0-1-0--|--1-0-1------------|

Refrain:

G|-------------------|-------------------|-------------------|-------------------|

D|-------------------|-------------------|-------------------|-------------------|

A|--0-0-0-0-0-0-0-0--|-------------------|-------------------|-------------------|

E|-------------------|--3-3-3-3-3-3-3-3--|--1-1-1-1-1-1-1-1--|--0-0-0-0-1-1-1-1--|

G|-------------------|-------------------|-------------------|-------------------|

D|-------------------|-------------------|-------------------|-------------------|

A|--0-0-0-0-0-0-0-0--|-------------------|-------------------|-------------------|

E|-------------------|--3-3-3-3-3-3-3-3--|--1-1-1-1-1-1-1-1--|--0----------------|

G|-------------------|-------------------|-------------------|-------------------|

D|-------------------|-------------------|-------------------|-------------------|[2x]

A|--0-0-0-0-0-0-0-0--|-------------------|-------------------|-------------------|

E|-------------------|--3-3-3-3-3-3-3-3--|--1-1-1-1-1-1-1-1--|--0-0-0-0-1-1-1-1--|

VERSE

Refrain:

G|-------------------|-------------------|-------------------|-------------------|

D|-------------------|-------------------|-------------------|-------------------|

A|--0-0-0-0-0-0-0-0--|-------------------|-------------------|-------------------|

E|-------------------|--3-3-3-3-3-3-3-3--|--1-1-1-1-1-1-1-1--|--0-0-0-0-1-1-1-1--|

G|-------------------|-------------------|-------------------|-------------------|

D|-------------------|-------------------|-------------------|-------------------|

A|--0-0-0-0-0-0-0-0--|-------------------|-------------------|-------------------|

E|-------------------|--3-3-3-3-3-3-3-3--|--1-1-1-1-1-1-1-1--|--0----------------|

G|-------------------|-------------------|-------------------|-------------------|

D|-------------------|-------------------|-------------------|-------------------|[2x]

A|--0-0-0-0-0-0-0-0--|-------------------|-------------------|--0----------------|

E|-------------------|--3-3-3-3-3-3-3-3--|--1-1--------------|------3---1-1------|

G|--------|--------|

D|--------|--------|

A|--0-----|--2--3--|

E|-----3--|--------|

√úbergang zum Solo, Solo und Ausklang:

G|--------|--------|-------|---------|-------|---------|-------|--------|

D|--------|--------|-------|---------|-------|---------|-------|--------|

A|--0--3--|--2--3--|-------|---------|-------|--3---2--|-------|--------|

E|--------|--------|--1-1--|--5---3--|--5-5--|---------|--1-1--|--5--3--|

G|-------------------|-------------------|-------------------|-------------------|

D|-------------------|-------------------|-------------------|-------------------|[x4]

A|--0-0-0-0-0-0-0-0--|-------------------|-------------------|-------------------|

E|-------------------|--3-3-3-3-3-3-3-3--|--1-1-1-1-1-1-1-1--|--0-0-0-0-1-1-1-1--|

G|-------------------|-------------------|-------------------|-------------------|

D|-------------------|-------------------|-------------------|-------------------|[x2]

A|--0-0-0-0-0-0-0-0--|-------------------|-------------------|-------------------|

E|-------------------|--3-3-3-3-3-3-3-3--|--1-1-1-1-1-1-1-1--|--0-0-0-0-0-0-0-0--|

G|-------------------|-------------------|-------------------|-------------------|

D|-------------------|-------------------|-------------------|-------------------|

A|--2-2-2-2-2-2-2-2--|--0-0-0-0-0-0-0-0--|-------------------|-------------------|

E|-------------------|-------------------|--3-3-3-3-3-3-3-3--|--2-2-2-2-2-2-2-2--|

G|-------------------|-------------------|-------------------|-------------------|

D|-------------------|-------------------|-------------------|-------------------|

A|--4-4-4-4-4-4-4-4--|--2-2-2-2-2-2-2-2--|--0-0-0-0-0-0-0-0--|-------------------|

E|-------------------|-------------------|-------------------|--4-4-4-4-4-4-4-4--|

G|-------------------|-------------------|-----------------|--------|-----|

D|-------------------|-------------------|-----------------|--------|-----|

A|--4-4-4-4-4-4-4-4--|--2-2-2-2-2-2-2-2--|--0-0-0-0-0-0-7--|--6--7--|--4--|

E|-------------------|-------------------|-----------------|--------|-----|Added by tabs-database.com and our distinguished partners

Get this song at:  amazon.com sheetmusicplus.com

Share your thoughts

0 Comments found