Boehse Onkelz

Boehse Onkelz - Nie Wieder guitar tab

Intro:

|--------------------------|--------------------------|

|-----------0--------------|-----------0--------------|

|--------0--------0-----0--|--------0--------0-----0--|

|--------------------0-----|--------------------0-----|

|--------------------------|--------------------------|

|--3-----------------------|--2-----------------------|

|--------------------------|--------------------------|

|----------0---------------|-----------0--------------|

|-------0---------0-----0--|--------0--------0-----0--|

|--------------------0-----|--------------------0-----|

|--------------------------|--------------------------|

|--0-----------------------|--0-----------------------|

|--------------------------|--------------------------|

|---------0----------------|-----------0--------------|

|------0----------0-----0--|--------0--------0-----0--|

|--------------------0-----|--------------------0-----|

|--3-----------------------|--2-----------------------|

|--------------------------|--------------------------|

|--------------------------|--------------------------|

|-----------0--------------|-----------0--------------|

|--------0--------0-----0--|--------0--------0-----0--|

|--------------------0-----|--------------------0-----|

|--0-----------------------|--0-----------------------|

|--------------------------|--------------------------|

Bridge: C5 H5 C5 A5 / H5 G5 / A5 H5 / G5 / F#5- A5- F#5- A5- /

H5 G5

Du weißt was das heißt

A5 H5

Du kennst den Preis

G5 F#5- A5- F#5- A5-

In diesem Spiel das Leben heißt

H5 G5

Mach dich bereit

A5 H5

Es kommt die Zeit

G5 F#5- A5- F#5- A5-

In der du wissen mußt wie's weitergeht

Zwischenspiel:

|-------------------|----------------------|

|*-8-8-7-7-3-3-0-0-*|-8-8-7--3--8-7-8-7--3-|

|-------------------|----------------------|

|-------------------|----------------------|

|*-----------------*|----------------------|

|-------------------|----------------------|

Refrain:

D5 E5 G5 A5

Du hast den Dreck von der Gosse geleckt, du weißt wie Scheiße schmeckt

D5 E5 G5 A5

Du hast die Straßen gesehn, wie Freunde untergehn

D5 E5 G5 A5

Nie wieder, nie wieder - Nie wieder Letzter sein

D5 E5 G5 A5

Nie wieder, nie wieder - Nie wieder ganz unten sein

Bridge: H5 G5 / A5 H5 / G5 / F#5- A5- F#5- A5- /

H5 G5

Du sahst es nicht ein

A5 H5

denn Scheiße sperrt man nicht ein

G5 F#5- A5- F#5- A5-

Dies Signum trägst nur du allein

H5 G5

Mach dich bereit

A5 H5

es kommt die Zeit

G5 F#5- A5- F#5- A5-

In der du wissen mußt wie's weitergeht

Zwischenspiel + 2x Refrain

|-------------------|----------------------|

|*-8-8-7-7-3-3-0-0-*|-8-8-7--3--8-7-8-7--3-|

|-------------------|----------------------|

|-------------------|----------------------|

|*-----------------*|----------------------|

|-------------------|----------------------|

D5 E5 G5 A5

Du hast den Dreck von der Gosse geleckt, du weißt wie Scheiße schmeckt

D5 E5 G5 A5

Du hast die Straßen gesehn, wie Freunde untergehn

D5 E5 G5 A5

Nie wieder, nie wieder - Nie wieder Letzter sein

D5 E5 G5 A5

Nie wieder, nie wieder - Nie wieder ganz unten sein

Added by tabs-database.com and our distinguished partners

Get this song at:  amazon.com sheetmusicplus.com

Share your thoughts

0 Comments found