Boehse Onkelz

Boehse Onkelz - Mexico guitar tab

Einstellungen:

Amp : High Overdrive Gain: 100% Bass + Treble: 3/4

Guitar: Steg Pickup Tone: 100%

Zeichen:

Anschlagsrichtung: D = Zum Boden (down) U = Zum Körper (up)

>>> = Slide Bsp.: 3>>>4 (Vom 3. in den 4. Bund rutschen)

M = Muted Saite abgedämpft Kann über mehrere Noten gehen.

Dann Schreibweise: M------------|

============================================================================

Intro = 2x Part 1

Strophe = 3X Part 2a)

1x Part 2b)

2x Part 2a)

1x Part 2c)

Refrain = Part 3

Stelle zum Tanzen = Part 4

ABLAUF: Intro

Strophe

Refrain

Part 1

Strophe

Refrain

Stelle zum Tanzen

Refrain

============================================================================

Part 1 (Intro)

Es werden Oktaven gespielt ACHTUNG!: D-Saite abdämpfen (Zeigefinger greift auf der

und berührt dabei die D-Saite.)

e|---------------------------|-----------------------|

H|---------------------------|-----------------------|

G|---9---7--12--11---9--11---|---9---7--12--11--14---|

D|---x---x---x---x---x---x---|---x---x---x---x---x---|

A|---7---5--10---9---7---9---|---7---5--10---9--12---|

E|---------------------------|-----------------------|

----------------------------------------------------------------------------

Part 2 (Strophe)

Anschlagsrichtung beachten (Steht unter der Tab-Zeile)

a)

e|-------------------|-------------------|

H|-------8---8-------|-------------------|

G|---7---7---7---7---|---5---------------| 3x a)

D|---7---7---7---7---|---5-----------7---|

A|---5---5---5---5---|---3-----------7---|

E|-------------------|-------3>>>4---5---|

D D D U D D D

b)

e|-------------------|-------------------|

H|-------8---8-------|-------8---8-------|

G|---7---7---7---7---|---7---7---7---7---| dann wieder 3x a) aber nur 2x

D|---7---7---7---7---|---7---7---7---7---| spielen -> danach c)

A|---5---5---5---5---|---5---5---5---5---|

E|-------------------|-------------------|

D D D U U D D U

c)

e|-------------------|-----------------------|-----------------------------|

H|-------8---8-------|-----------8---8-------|-----------------------------|

G|---7---7---7---7---|---7---7---7---7---7---|-------9---------------------|

D|---7---7---7---7---|---7---7---7---7---7---|---9---9---7---7--7--7--7--7-|

A|---5---5---5---5---|---5---5---5---5---5---|---9---7---7---7--7--7--7--7-|

E|-------------------|-----------------------|---7-------5---5--5--5--5--5-|

D D D U U U D D U D D D M-------------|

---------------------------------------------------------------------------

Part 3 (Refrain)

e|--------------------------------------------------------------------------|

H|--------------------------------------------------------------------------|

G|---------7--9----9-11-11--9--7--9----9--------7--9----9--7--7--6-----9----|

D|---7--7--7--9----9-11-11--9--7--9----9--7--7--7--9----9--7--7--6--9--9----|

A|---7--7--5--7----7--9--9--7--5--7----7--7--7--5--7----7--5--5--4--9--7----|

E|---5--5---------------------------------5--5----------------------7-------|

e|--------------------------------------------------------------------------|

H|--------------------------------------------------------------------------|

G|---9--------7--9----9-11---11-11--9----9--7--7----7--9--9----9-----9------|

D|---9--7--7--7--9----9-11---11-11--9----9--7--7----7--9--9----9--7--9--7---|

A|---7--7--7--5--7----7--9----9--9--7----7--5--5----5--7--7----7--7--7--7---|

E|------5--5------------------------------------------------------5-----5---|

D

e|

H|

G|

D|-------7-|

A|-------7-|

E|-3>>4--5-|

D D

----------------------------------------------------------------------------

Part 4 (Die Stelle zum Tanzen)

e|---------------------------------------------------------------------------|

H|---------------------------------------------------------------------------|

G|---------------------------------------------------------------------------|

D|---------------------------------------------------------------------------|

A|---2--4--5--0-0-0-0-0--2--4--5--0-0-0-0-0--2--4--5--7-7-7-7-7--5--4--2--0--|

E|---------------------------------------------------------------------------|

M-------------------------------------------------------------------------|

e|-------------------------------------------|

H|-------------------------------------------|

G|---7--7-7-7-7-7-7--6--6-6--2---2-2---------| 2x

D|---7--7-7-7-7-7-7--6--6-6--2---2-2---------|

A|---5--5-5-5-5-5-5--4--4-4--0---0-0---------|

E|-------------------------------------------|

M----------| M------------------------|

e|----------------------------------------------------|

H|----------------------------------------------------|

G|---7--7-7-7-7-7-7--7--7-7--7--9--9-9--6--6-6--2-----|

D|---7--7-7-7-7-7-7--7--7-7--7--9--9-9--6--6-6--2-----|

A|---5--5-5-5-5-5-5--5--5-5--5--7--7-7--4--4-4--0-----|

E|----------------------------------------------------|

M----------| M---------------------------------| D D U D D U DAdded by tabs-database.com and our distinguished partners

Get this song at:  amazon.com sheetmusicplus.com

Share your thoughts

0 Comments found