Boehse Onkelz

Boehse Onkelz - Hier Sind Die Onkelz guitar tab

tabs-database.com[http://www.tabs-database.com.com/]

Böhse Onkelz

Hier sind die Onkelz - Live in Hamburg

Tabber - Tobias

E-Mail Adresse - webmaster at tabs-database.com.com

Stefan - Rhythm Guitar

Gonzo - Lead Guitar

h - hammer on

p - pull off

x - dead note

b - bend

~ - let ring

\\ - slide down

[Intro]

(Stefan)

eb|------------------------------|

Bb|------------------------------|

Gb|------------------------------|

Db|------------------------------|2x

Ab|5h7-5h7-5h7-5h7--7-5----------|

Eb|---------------------7-5------|

[Main Riff]

(Stefan)

eb|------------------------------|

Bb|------------------------------|

Gb|------------------------------|

Db|------------------------------|5x

Ab|5h7-5h7-5h7-5h7--7-5----------|

Eb|---------------------7-5------|

|

(Gonzo) |

eb|------------------------------|

Bb|------------------------------|

Gb|7h9-7h9-7h9-7h9--9p7----------|

Db|---------------------9p7------|5x

Ab|------------------------------|

Eb|------------------------------|

(Stefan und Gonzo)

eb|------------------------------|

Bb|------------------------------|

Gb|9--9--9--9-9-9----------------|

Db|9--9--9--9-9-9----------------|1x

Ab|7--7--7--7-7-7----------------|

Eb|0--0--0--0-0-0----------------|

[Verse]

(Stefan und Gonzo)

eb|-----------------------------------|---------------------------------|

Bb|-----------------------------------|---------------------------------|

Gb|4-4-4-4--4-4-4-4--4-4-4-4--7-7-7-7-|-4-4-4-4--4-4-4-4--4-4-4-4--7b---|

Db|4-4-4-4--4-4-4-4--4-4-4-4--7-7-7-7-|-4-4-4-4--4-4-4-4--4-4-4-4-------|1x

Ab|2-2-2-2--2-2-2-2--2-2-2-2--5-5-5-5-|-2-2-2-2--2-2-2-2--2-2-2-2-------|

Eb|-----------------------------------|---------------------------------|

[Main Riff]

(Stefan)

eb|------------------------------|

Bb|------------------------------|

Gb|------------------------------|

Db|------------------------------|1x

Ab|5h7-5h7-5h7-5h7--7-5----------|

Eb|---------------------7-5------|

|

(Gonzo) |

eb|------------------------------|

Bb|------------------------------|

Gb|7h9-7h9-7h9-7h9--9p7----------|

Db|---------------------9p7------|1x

Ab|------------------------------|

Eb|------------------------------|

[Verse]

(Stefan und Gonzo)

eb|-----------------------------------|---------------------------------|

Bb|-----------------------------------|---------------------------------|

Gb|4-4-4-4--4-4-4-4--4-4-4-4--7-7-7-7-|-4-4-4-4--4-4-4-4--4-4-4-4--7b---|

Db|4-4-4-4--4-4-4-4--4-4-4-4--7-7-7-7-|-4-4-4-4--4-4-4-4--4-4-4-4-------|1x

Ab|2-2-2-2--2-2-2-2--2-2-2-2--5-5-5-5-|-2-2-2-2--2-2-2-2--2-2-2-2-------|

Eb|-----------------------------------|---------------------------------|

[Main Riff]

(Stefan)

eb|------------------------------|

Bb|------------------------------|

Gb|------------------------------|

Db|------------------------------|1x

Ab|5h7-5h7-5h7-5h7--7-5----------|

Eb|---------------------7-5------|

|

(Gonzo) |

eb|------------------------------|

Bb|------------------------------|

Gb|7h9-7h9-7h9-7h9--9p7----------|

Db|---------------------9p7------|1x

Ab|------------------------------|

Eb|------------------------------|

[Chorus]

(Stefan und Gonzo)

eb|----------------------------------------------------|

Bb|----------------------------------------------------|

Gb|---------------------------7-x-x-7-7----------------|

Db|7~~------2~~------4~~------7-x-x-7-7----------------|4x

Ab|7~~------2~~------4~~------5-x-x-5-5----------------|

Eb|5~~------0~~------2~~-------------------------------|

[Main Riff]

(Stefan)

eb|------------------------------|

Bb|------------------------------|

Gb|------------------------------|

Db|------------------------------|3x

Ab|5h7-5h7-5h7-5h7--7-5----------|

Eb|---------------------7-5------|

|

(Gonzo) |

eb|------------------------------|

Bb|------------------------------|

Gb|7h9-7h9-7h9-7h9--9p7----------|

Db|---------------------9p7------|3x

Ab|------------------------------|

Eb|------------------------------|

(Stefan und Gonzo)

eb|------------------------------|

Bb|------------------------------|

Gb|9--9--9--9-9-9----------------|

Db|9--9--9--9-9-9----------------|1x

Ab|7--7--7--7-7-7----------------|

Eb|0--0--0--0-0-0----------------|

[Verse]

(Stefan und Gonzo)

eb|-----------------------------------|---------------------------------|

Bb|-----------------------------------|---------------------------------|

Gb|4-4-4-4--4-4-4-4--4-4-4-4--7-7-7-7-|-4-4-4-4--4-4-4-4--4-4-4-4--7b---|

Db|4-4-4-4--4-4-4-4--4-4-4-4--7-7-7-7-|-4-4-4-4--4-4-4-4--4-4-4-4-------|1x

Ab|2-2-2-2--2-2-2-2--2-2-2-2--5-5-5-5-|-2-2-2-2--2-2-2-2--2-2-2-2-------|

Eb|-----------------------------------|---------------------------------|

[Main Riff]

(Stefan)

eb|------------------------------|

Bb|------------------------------|

Gb|------------------------------|

Db|------------------------------|1x

Ab|5h7-5h7-5h7-5h7--7-5----------|

Eb|---------------------7-5------|

|

(Gonzo) |

eb|------------------------------|

Bb|------------------------------|

Gb|7h9-7h9-7h9-7h9--9p7----------|

Db|---------------------9p7------|1x

Ab|------------------------------|

Eb|------------------------------|

[Verse]

(Stefan und Gonzo)

eb|-----------------------------------|---------------------------------|

Bb|-----------------------------------|---------------------------------|

Gb|4-4-4-4--4-4-4-4--4-4-4-4--7-7-7-7-|-4-4-4-4--4-4-4-4--4-4-4-4--7b---|

Db|4-4-4-4--4-4-4-4--4-4-4-4--7-7-7-7-|-4-4-4-4--4-4-4-4--4-4-4-4-------|1x

Ab|2-2-2-2--2-2-2-2--2-2-2-2--5-5-5-5-|-2-2-2-2--2-2-2-2--2-2-2-2-------|

Eb|-----------------------------------|---------------------------------|

[Main Riff]

(Stefan)

eb|------------------------------|

Bb|------------------------------|

Gb|------------------------------|

Db|------------------------------|1x

Ab|5h7-5h7-5h7-5h7--7-5----------|

Eb|---------------------7-5------|

|

(Gonzo) |

eb|------------------------------|

Bb|------------------------------|

Gb|7h9-7h9-7h9-7h9--9p7----------|

Db|---------------------9p7------|1x

Ab|------------------------------|

Eb|------------------------------|

[Chorus]

(Stefan und Gonzo)

eb|----------------------------------------------------|

Bb|----------------------------------------------------|

Gb|---------------------------7-x-x-7-7----------------|

Db|7~~------2~~------4~~------7-x-x-7-7----------------|4x

Ab|7~~------2~~------4~~------5-x-x-5-5----------------|

Eb|5~~------0~~------2~~-------------------------------|

[Pre-Solo]

(Stefan und Gonzo)

eb|-------------------------|

Bb|-------------------------|

Gb|9-8-7-6-5-4-5-6-7-8-9----|

Db|9-8-7-6-5-4-5-6-7-8-9----|1x

Ab|7-6-5-4-3-2-3-4-5-6-7----|

Eb|-------------------------|

[Solo]

(Gonzo)

Tut mir leid! Ich konnte das Solo noch

nicht heraushören und schreibe es

vielleicht später noch nach.

[Chorus]

(Stefan und Gonzo)

eb|----------------------------------------------------|

Bb|----------------------------------------------------|

Gb|---------------------------7-x-x-7-7----------------|

Db|7~~------2~~------4~~------7-x-x-7-7----------------|4x

Ab|7~~------2~~------4~~------5-x-x-5-5----------------|

Eb|5~~------0~~------2~~-------------------------------|

[Main Riff]

(Stefan)

eb|------------------------------|

Bb|------------------------------|

Gb|------------------------------|

Db|------------------------------|3x

Ab|5h7-5h7-5h7-5h7--7-5----------|

Eb|---------------------7-5------|

|

(Gonzo) |

eb|------------------------------|

Bb|------------------------------|

Gb|7h9-7h9-7h9-7h9--9p7----------|

Db|---------------------9p7------|3x

Ab|------------------------------|

Eb|------------------------------|

(Stefan und Gonzo)

eb|------------------------------|

Bb|------------------------------|

Gb|9--9--9--9-9-9----------------|

Db|9--9--9--9-9-9----------------|1x

Ab|7--7--7--7-7-7----------------|

Eb|0--0--0--0-0-0----------------|

[Verse]

(Stefan und Gonzo)

eb|-----------------------------------|---------------------------------|

Bb|-----------------------------------|---------------------------------|

Gb|4-4-4-4--4-4-4-4--4-4-4-4--7-7-7-7-|-4-4-4-4--4-4-4-4--4-4-4-4--7b---|

Db|4-4-4-4--4-4-4-4--4-4-4-4--7-7-7-7-|-4-4-4-4--4-4-4-4--4-4-4-4-------|1x

Ab|2-2-2-2--2-2-2-2--2-2-2-2--5-5-5-5-|-2-2-2-2--2-2-2-2--2-2-2-2-------|

Eb|-----------------------------------|---------------------------------|

[Main Riff]

(Stefan)

eb|------------------------------|

Bb|------------------------------|

Gb|------------------------------|

Db|------------------------------|1x

Ab|5h7-5h7-5h7-5h7--7-5----------|

Eb|---------------------7-5------|

|

(Gonzo) |

eb|------------------------------|

Bb|------------------------------|

Gb|7h9-7h9-7h9-7h9--9p7----------|

Db|---------------------9p7------|1x

Ab|------------------------------|

Eb|------------------------------|

[Verse]

(Stefan und Gonzo)

eb|-----------------------------------|---------------------------------|

Bb|-----------------------------------|---------------------------------|

Gb|4-4-4-4--4-4-4-4--4-4-4-4--7-7-7-7-|-4-4-4-4--4-4-4-4--4-4-4-4--7b---|

Db|4-4-4-4--4-4-4-4--4-4-4-4--7-7-7-7-|-4-4-4-4--4-4-4-4--4-4-4-4-------|1x

Ab|2-2-2-2--2-2-2-2--2-2-2-2--5-5-5-5-|-2-2-2-2--2-2-2-2--2-2-2-2-------|

Eb|-----------------------------------|---------------------------------|

[Main Riff]

(Stefan)

eb|------------------------------|

Bb|------------------------------|

Gb|------------------------------|

Db|------------------------------|1x

Ab|5h7-5h7-5h7-5h7--7-5----------|

Eb|---------------------7-5------|

|

(Gonzo) |

eb|------------------------------|

Bb|------------------------------|

Gb|7h9-7h9-7h9-7h9--9p7----------|

Db|---------------------9p7------|1x

Ab|------------------------------|

Eb|------------------------------|

[Chorus]

(Stefan und Gonzo)

eb|----------------------------------------------------|

Bb|----------------------------------------------------|

Gb|---------------------------------------7-x-7-7-x----|

Db|7-7-x-x-x-x--2-2-x-x-x-x--4-4-x-x-x-x--7-x-7-7-x----|3x

Ab|7-7-x-x-x-x--2-2-x-x-x-x--4-4-x-x-x-x--5-x-5-5-x----|

Eb|5-5-x-x-x-x--0-0-x-x-x-x--2-2-x-x-x-x---------------|

eb|----------------------------------|

Bb|----------------------------------|

Gb|---------------------------7~~----|

Db|7~~------2~~------4~~------7~~----|

Ab|7~~------2~~------4~~------5~~----|

Eb|5~~------0~~------2~~-------------|

eb|----------------------------------------------------|

Bb|----------------------------------------------------|

Gb|---------------------------7-x-x-7-7----------------|

Db|7~~------2~~------4~~------7-x-x-7-7----------------|4x

Ab|7~~------2~~------4~~------5-x-x-5-5----------------|

Eb|5~~------0~~------2~~-------------------------------|

[Outro]

(Stefan und Gonzo)

eb|---------------------------------------------------------|

Bb|---------------------------------------------------------|

Gb|----6-------------1-------------3------------------------|

Db|----7-------------2-------------4---------7-7-7----------|2x

Ab|7-7-7--7-7-7--2-2-2--2-2-2--4-4-4--4-4-4--5-5-5--16\\-----|

Eb|5-5-5--5-5-5--0-0-0--0-0-0--2-2-2--2-2-2---------14\\-----|

eb|-------------------------------------------------------------|

Bb|-------------------------------------------------------------|

Gb|---------------------------------------------7--7-7--7-7-7---|

Db|7--7-7--7-7-7--2--2-2--2-2-2--4--4-4--4-4-4--7--7-7--7-7-7---|4x

Ab|7--7-7--7-7-7--2--2-2--2-2-2--4--4-4--4-4-4--5--5-5--5-5-5---|

Eb|5--5-5--5-5-5--0--0-0--0-0-0--2--2-2--2-2-2------------------|

eb|------|

Bb|------|

Gb|------|

Db|7~~~~~|

Ab|7~~~~~|

Eb|5~~~~~|

Ich bin mir nicht 100% sicher ob alles richtig ist.

Ihr müsst euch einfach mal das Lied anhören, und

auf den Rythmus der Gitarren achten. Bitte entschuldigt,

wenn die Namen nicht stimmen denn ich bin erst seit

kurzem Onkelz-Fan und mein Kumpel hat gesagt,dass sie

so heißen.

Bitte bewertet mich.Danke

Added by tabs-database.com and our distinguished partners

Get this song at:  amazon.com sheetmusicplus.com

Share your thoughts

0 Comments found