Boehse Onkelz

Boehse Onkelz - Fuer Immer 2 guitar tab

Hab mir den Song angehört und denke dass diese kleine Verbesserung angebracht ist :)

Riff 1:

e|---------------|---------------|---------------|---------------|----|

B|--------0------|--------0------|--------0------|--------0------|----|

G|---------------|---------------|---------------|---------------|-4x-|

D|----9-------9--|----9-------9--|----7-------7--|----7-------7--|----|

A|--7---7---7----|--7---7---7----|--5---5---5----|--5---5---5----|----|

E|---------------|---------------|---------------|---------------|----|

e|---------------|---------------|---------------|---------------|----|

B|--------0------|--------0------|--------0------|--------0------|----|

G|---------------|---------------|---------------|---------------|-2x-|

D|----5-------5--|----5-------5--|----7-------7--|----7-------7--|----|

A|--3---3---3----|--3---3---3----|--5---5---5----|--5---5---5----|----|

E|---------------|---------------|---------------|---------------|----|

Akkordfolge 1:

    Am  Em   Am  Hm          Em    Am   Asus4  Em    Hm

e|---0---0--------0---2---|-------0-----0-----0-----0-----2------------------------|

B|---1---0--------1---3---|-------0-----1-----3-----0-----3-----Spielerei mit------|

G|---2---0---3x---2---4---|-------0-----2-----2-----0-----4-----diesen Akkorden----|

D|---2---2--------2---4---|-------2-----2-----2-----2-----4-----in dieser----------|

A|---0---2--------0---2---|-------2-----0-----0-----2-----2-----Reihenfolge--------|

E|-------0----------------|-------0-----------------0------------------------------|

Have fun!

  Flightman

___________________

flightman@gmx.net

Get this song at:  amazon.com sheetmusicplus.com

Share your thoughts

0 Comments found