Boehse Onkelz

Boehse Onkelz - Erinnerungen guitar tab

This is the right version! In the first one there was a different chorus!

("Nichts ist für die ewigkeit") I´m sorry about that!

Titel: Erinnerungen

Artist: Onkelz

Tabbed by: Jan [BorisB.ecker@gmx.de]

Intro + Verse part 1

e|--------0-----0----------------0-----0---------------0-----0---------------0-----0-------|

B|-----------0-----0----------------0-----0---------------0-----0---------------0-----0----|

G|-----------------------------------------------------------------------------------------|

D|-----6--------------6-------6--------------6------4--------------4------4--------------4-|

A|--4----------------------4---------------------2---------------------2-------------------|

E|-----------------------------------------------------------------------------------------|

Verse part 2

e|--------0-----0---------------0-----0---------------0-----0---------------0-----0-------|

B|-----------2-----2---------------0-----0---------------0-----0---------------0-----0----|

G|----------------------------------------------------------------------------------------|

D|-----2--------------2------4--------------4------6--------------6------6--------------6-|

A|--0---------------------2---------------------4---------------------4-------------------|

E|----------------------------------------------------------------------------------------|

Chorus

e|----------------------------------------------------------------------------------------|

B|----------------------------------------------------------------------------------------|

G|--6-----4-----6-----4-----6-----6-------6--4--------------------------------------------|

D|--6--7--4-----6--7--4-----6--7--6--7----6--4--------------------------------------------|

A|--4--7--2-----4--7--2-----4--7--4--7----4--2--------------------------------------------|

E|-----5-----------5-----------5-----5----------------------------------------------------|

-----------------------------------------------------------------------------------------

Rhytmus müsst ihr selbst raushören, is nicht schwer! Genauso siehts mit den beiden Soli aus!

Hatte bisher noch keine Zeit, wird aber kommen! Viel Spaß!!

Get this song at:  amazon.com sheetmusicplus.com

Share your thoughts

0 Comments found