Boehse Onkelz

Boehse Onkelz - Du Kannst Alles Haben guitar tab

SONG : DU KANNST ALLES HABEN

AUTHOR : BOEHSE ONKELZ

ALBUM : HIER SIND DIE ONKELZ (1995)

This song is very easy, but it sounds very cool !!!!

happy playing,

Raphael Vallazza (rafival@em.parsec.it)

RIFF 1:

------------------------------------------------------

----8-7-8-7-8---8-7-8-7-8---8-7-8-7-8---8-7-8-7-8-----

--7-----------9-----------7-----------9---------------

------------------------------------------------------

------------------------------------------------------

------------------------------------------------------

RIFF 2:

-----------------------------------------------------------------

-----------------------------------------------------------------

-7-7-7-7-7-7-7-7-7-7-7-7-7-7-7-7-4-4-4-4-4-4-4-4-4-4-4-4-4-4-4-4-

-5-5-5-5-5-5-5-5-5-5-5-5-5-5-5-5-2-2-2-2-2-2-2-2-2-2-2-2-2-2-2-2-

-----------------------------------------------------------------

-----------------------------------------------------------------

-----------------------------------------------------------------

-----------------------------------------------------------------

-7-7-7-7-7-7-7-7-7-7-7-7-9-9-9-9-4-4-4-4-4-4-4-4-4-4-4-4-4-4-4-4-

-5-5-5-5-5-5-5-5-5-5-5-5-7-7-7-7-2-2-2-2-2-2-2-2-2-2-2-2-2-2-2-2-

-----------------------------------------------------------------

-----------------------------------------------------------------

RIFF 3:

-----------------------------------------------------------------

-----------------------------------------------------------------

-----------------------------------------------------------------

-5-5-5-5-5-5-5-5-5-5-5-5-5-5-5-5-7-7-7-7-7-7-7-7-7-7-7-7-7-7-7-7-

-3-3-3-3-3-3-3-3-3-3-3-3-3-3-3-3-5-5-5-5-5-5-5-5-5-5-5-5-5-5-5-5-

-----------------------------------------------------------------

REFRAIN (the distance between the notes is the rhythm):

---------------------------------------------------------

---------------------------------------------------------

---------------------------------------------------------

----------------7-7--7-77-77--5-5--5-55-55--7-7--7-77-77-

-5-5--5--55-55--5-5--5-55-55--3-3--3-33-33--5-5--5-55-55-

-3-3--3--33-33-------------------------------------------

RIFF 4 (palm muted with a lot of distortion and slow):

-----------------------------------------------------------------

-----------------------------------------------------------------

-----------------------------------------------------------------

---------------------------------5-5-5-5-5-5-5-5-7-7-7-7-7-7-7-7-

-5-5-5-5-5-5-5-5-2-2-2-2-2-2-2-2-3-3-3-3-3-3-3-3-5-5-5-5-5-5-5-5-

-3-3-3-3-3-3-3-3-0-0-0-0-0-0-0-0---------------------------------

END (the end is a lot of noise end then this chord):

-----

-----

-7-7-

-5-5-

-----

-----

STRUCTURE:

RIFF 1 (2x) - RIFF 2 (play riffs together)

RIFF 2

RIFF 3 (2x)

REFRAIN (2x)

RIFF 1 (2x) - RIFF 2 (play riffs together)

RIFF 2

RIFF 3 (2x)

REFRAIN

RIFF 4

RIFF 2

RIFF 3 (2x)

REFRAIN (2x)

RIFF 1 (2x) - REFRAIN (play riffs together)

END

If you have any comments, corrections, ... send them to:

Raphael Vallazza (rafival@em.parsec.it)

Get this song at:  amazon.com sheetmusicplus.com

Share your thoughts

0 Comments found