Boehse Onkelz

Boehse Onkelz - Die Firma Bass guitar tab

Intro :

G-|---------------------------------------------------------------|

D-|-----------------2-2-2-2-2-Hey-------------------4-4-4-4-4-Hey-|(2x)

A-|---------------------------------2-2-2-2-2-Hey-----------------|

E-|-4-4-4-4-4-Hey-------------------------------------------------|

Strophe :

G-|---------------------------------------------------------------|

D-|----------------2-2-2-2-2-2-2-2--------------------------------|(4x)

A-|-------------------------------4-4-4-4-4-4-4-4-4-4-4-4-4-4-4-4-|

E-|-4-4-4-4-4-4-4-4-----------------------------------------------|

Übergang : (mit den kurzen Abständen)

G-|----------------------------------------------------------------------|

D-|-----2-2---------2-2---------2-2--------------------------------------|

A-|---------4-4---------4-4---------4-4--2-2-2-2-2-2-2-2-1-1-1-1-1-1-1-1-|

E-|-4-4---------4-4---------4-4------------------------------------------|

Refrain :

G-|--------------------------------------------------------------|

D-|----------------2-2-2-2-2-2-2-2---------------4-4-4-4-4-4-4-4-|(4x)

A-|-------------------------------2-2-2-2-2-2-2-2----------------|

E-|-4-4-4-4-4-4-4-4----------------------------------------------|

G-|-----------------------------------------------------------------|

D-|-2-2-2-2-2-2-2-2-2-2-2-2-------4-4-4-4-4-4-4-4-4-4-4-4-----------|

A-|------------------------2-2-2-2----------------------------------|

E-|------------------------------------------------------4-4-4-4-4--|

Strophe :

G-|---------------------------------------------------------------|

D-|----------------2-2-2-2-2-2-2-2--------------------------------|(4x)

A-|-------------------------------4-4-4-4-4-4-4-4-4-4-4-4-4-4-4-4-|

E-|-4-4-4-4-4-4-4-4-----------------------------------------------|

Übergang : (mit den kurzen Abständen)

G-|----------------------------------------------------------------------|

D-|-----2-2---------2-2---------2-2--------------------------------------|

A-|---------4-4---------4-4---------4-4--2-2-2-2-2-2-2-2-1-1-1-1-1-1-1-1-|

E-|-4-4---------4-4---------4-4------------------------------------------|

Refrain :

G-|--------------------------------------------------------------|

D-|----------------2-2-2-2-2-2-2-2---------------4-4-4-4-4-4-4-4-|(4x)

A-|-------------------------------2-2-2-2-2-2-2-2----------------|

E-|-4-4-4-4-4-4-4-4----------------------------------------------|

G-|-----------------------------------------------------------------|

D-|-2-2-2-2-2-2-2-2-2-2-2-2-------4-4-4-4-4-4-4-4-4-4-4-4-----------|

A-|------------------------2-2-2-2----------------------------------|

E-|------------------------------------------------------4-4-4-4-4--|

Solo :

G-|--------------------------------------------------------------|

D-|----------------2-2-2-2-2-2-2-2---------------4-4-4-4-4-4-4-4-|(8x)

A-|-------------------------------2-2-2-2-2-2-2-2----------------|

E-|-4-4-4-4-4-4-4-4----------------------------------------------|

Refrain :

G-|--------------------------------------------------------------|

D-|----------------2-2-2-2-2-2-2-2---------------4-4-4-4-4-4-4-4-|(4x)

A-|-------------------------------2-2-2-2-2-2-2-2----------------|

E-|-4-4-4-4-4-4-4-4----------------------------------------------|

G-|-----------------------------------------------------------------|

D-|-2-2-2-2-2-2-2-2-2-2-2-2-------4-4-4-4-4-4-4-4-4-4-4-4-----------|

A-|------------------------2-2-2-2----------------------------------|

E-|------------------------------------------------------4-4-4-4-4--|

Outro : (Um unsre Köpfe kreist kein...)

G-|--------------------------------------------------------------|

D-|----------------2-2-2-2-2-2-2-2---------------4-4-4-4-4-4-4-4-|(2x)

A-|-------------------------------2-2-2-2-2-2-2-2----------------|

E-|-4-4-4-4-4-4-4-4----------------------------------------------|

G-|-----------------------------------------------------------------|

D-|-2-2-2-2-2-2-2-2-2-2-2-2-------4-4-4-4-4-4-4-4-4-4-4-4-----------|

A-|------------------------2-2-2-2----------------------------------|

E-|------------------------------------------------------4-4-4-4-4--|

Cooler Song! Viel Spaß damit!Added by tabs-database.com and our distinguished partners

Get this song at:  amazon.com sheetmusicplus.com

Share your thoughts

0 Comments found