Boehse Onkelz

Boehse Onkelz - Danket Dem Herrn guitar tab

Artist: Böhse Onkelz

Song: Danket dem Herrn

Album: E.I.N.S.

Tabbed by: Matthias Schmittenberg

E-Mail: Cyberdevil17@web.de

I did?nt tab the solo, coz I?m not a good soloist....if anyone got the tab,please send it to me

Intro& 2nd Verse Part

E------------------------------------------------------------------------------------

B------------------------------------------------------------------------------------

G------------------------------------------------------------------------------------

D----9---9---9---9---9----9---9---9---9---9----7---7---7---7---7----7---7---7---7--7-

A------------------------------------------------------------------------------------

E-77---7---7---7---7---66---6---6---6---6---55---5---5---5---5---44---4---4---4---4--

Pm__   _   _   _   _   __   _   _   _   _   __   _   _   _   _   __    _  _   _    _

Verse

E-----------------------

B-------------------------

G-------------------------

D---9r----8r----7r----6r--

A---9r----8r----7r----6r--

E---7r----6r----5r----4r--

Chorus

E----------------------------------------------------------

B----------------------------------------------------------

G----------------------------------------------------------

D?2r---4r---9-9-9-9-9-9-9?6r---2r---4r---9-9-9-9-9-9-

A?2r---4r---9-9-9-9-9-9-9?6r---2r---4r---9-9-9-9-9-9-

E?0r---2r---7-7-7-7-7-7-7?4r---0r---2r---7-7-7-7-7-7-

Lyrics:

Danket dem Herrn, Euer Elend geht zu Ende

Das warten ist vorbei. Jetzt wackeln die Wände

Ja, hier ist Kevin, Eure Stimme aus der Gosse

Der wandelnde Wahnsinn. Mit Worten wie Geschosse

Wir bringen's auf den Punkt. Sagen, was sich keiner traut

Gegen alle Regeln. Es Wird Zeit, daß ihr das glaubt.

Wir sind der Stachel im Arsch der Nation.

Glorreiche Halunken, nichts bleibt von uns verschont

Mit dieser Band hast du nicht viele Freunde,

doch die du hast teilen alles mit dir.

Uns liegt das Herz auf der Zunge, und hier sind die Beweise

Wir sind duftende Blumen, in Feldern voll Scheiße

Hier sind Perlen für die Säue

Angst für unsere Feinde

Tröstende Worte - wenn es sein muß, auch gemeine

Hier ist das rettende Ufer, euer heiliger Hafen

Der Strohhalm für Ertrinkende, Koks für die die schlafen

Geschenke für Verzweifelte, Lebenselixiere

Entartete Kunst, von den fantastischen Vier

Get this song at:  amazon.com sheetmusicplus.com

Share your thoughts

0 Comments found