Boehse Onkelz

Boehse Onkelz - Bomberpilot guitar tab

tabs-database.com[http://www.tabs-database.com.com/]

Artist: Boehse Onkelz

Album: Live in Frankfurt

Song: Bomberpilot

Tabber: dw

Tuning: standard

Guitar 1:

E||------------------------|---------------------|------------------------|

B||------------------------|---------------------|------------------------|

G||--5--5------------------|---------------------|--5--5------------------|

D||--5--5----5--5----7--7--|----2--2----3--------|--5--5----5--5----7--7--|

A||--3--3----5--5----7--7--|----2--2----3--------|--3--3----5--5----7--7--|

E||----------3--3----5--5--|----0--0----1--------|----------3--3----5--5--|

------------------|------------------------|---------------------|

------------------|------------------------|---------------------|

------------------|--5--5------------------|---------------------|

------------------|--5--5----5--5----7--7--|----2--2----3--------|

------------------|--3--3----5--5----7--7--|----2--2----3--------|

------------------|----------3--3----5--5--|----0--0----1--------|

------------------------|------------------|------------------------|

------------------------|------------------|------------------------|

--5--5------------------|------------------|--5--5------------------|

--5--5----5--5----7--7--|------------------|--5--5----5--5----7--7--|

--3--3----5--5----7--7--|------------------|--3--3----5--5----7--7--|

----------3--3----5--5--|------------------|----------3--3----5--5--|

---------------------|------------------------|------------------|

---------------------|------------------------|------------------|

---------------------|--5--5------------------|------------------|

----2--2----3--------|--5--5----5--5----7--7--|------------------|

----2--2----3--------|--3--3----5--5----7--7--|------------------|

----0--0----1--------|----------3--3----5--5--|------------------|

------------------------|---------------------|------------------------|

------------------------|---------------------|------------------------|

--5--5------------------|---------------------|--5--5------------------|

--5--5----5--5----7--7--|----2--2----3--------|--5--5----5--5----7--7--|

--3--3----5--5----7--7--|----2--2----3--------|--3--3----5--5----7--7--|

----------3--3----5--5--|----0--0----1--------|----------3--3----5--5--|

------------------|------------------------|---------------------|

------------------|------------------------|---------------------|

------------------|--5--5------------------|---------------------|

------------------|--5--5----5--5----7--7--|----2--2----3--------|

------------------|--3--3----5--5----7--7--|----2--2----3--------|

------------------|----------3--3----5--5--|----0--0----1--------|

------------------------|------------------|------------------------|

------------------------|------------------|------------------------|

--5--5------------------|------------------|--5--5------------------|

--5--5----5--5----7--7--|------------------|--5--5----5--5----7--7--|

--3--3----5--5----7--7--|------------------|--3--3----5--5----7--7--|

----------3--3----5--5--|------------------|----------3--3----5--5--|

---------------------|------------------------|------------------|

---------------------|------------------------|------------------|

---------------------|--5--5------------------|------------------|

----2--2----3--------|--5--5----5--5----7--7--|------------------|

----2--2----3--------|--3--3----5--5----7--7--|------------------|

----0--0----1--------|----------3--3----5--5--|------------------|

-------------------|-------------------|-------------------|-------------------|

-------------------|-------------------|-------------------|-------------------|

-------------------|-------------------|--5----------------|-------------------|

--7----------------|--3----------------|--5----------------|--2----------------|

--7----------------|--3----------------|--3----------------|--2----------------|

--5----------------|--1----------------|-------------------|--0----------------|

-------------------|-------------------|-------------------|

-------------------|-------------------|-------------------|

-------------------|-------------------|--5----------------|

--7----------------|--3----------------|--5----------------|

--7----------------|--3----------------|--3----------------|

--5----------------|--1----------------|-------------------|

-----------------------|-----------------------|------------------------|

-----------------------|-----------------------|------------------------|

-----------------------|--------------------3--|----0--3--0--3----0-----|

--2----2--2----2----2--|--2----2--2----2-------|---------------------5--|

--2----2--2----2----2--|--2----2--2----2-------|---------------------5--|

--0----0--0----0----0--|--0----0--0----0-------|---------------------3--|

-----------------------|------------------------|-----------------------|

-----------------------|------------------------|-----------------------|

--------------------3--|----0--3--0--3----0-----|--------------------3--|

----7--7--7--7---------|---------------------5--|----7--7--7--7---------|

----7--7--7--7---------|---------------------5--|----7--7--7--7---------|

----5--5--5--5---------|---------------------3--|----5--5--5--5---------|

------------------------|-----------------------|------------------------|

------------------------|-----------------------|------------------------|

----0--3--0--3----0-----|--------------------3--|----0--3--0--3----------|

---------------------5--|----7--7--7--7---------|------------------7--7--|

---------------------5--|----7--7--7--7---------|------------------7--7--|

---------------------3--|----5--5--5--5---------|------------------5--5--|

------------------|------------------------|---------------------|

------------------|------------------------|---------------------|

------------------|--5--5------------------|---------------------|

------------------|--5--5----5--5----7--7--|----2--2----3--------|

------------------|--3--3----5--5----7--7--|----2--2----3--------|

------------------|----------3--3----5--5--|----0--0----1--------|

------------------------|------------------|------------------------|

------------------------|------------------|------------------------|

--5--5------------------|------------------|--5--5------------------|

--5--5----5--5----7--7--|------------------|--5--5----5--5----7--7--|

--3--3----5--5----7--7--|------------------|--3--3----5--5----7--7--|

----------3--3----5--5--|------------------|----------3--3----5--5--|

---------------------|------------------------|------------------|

---------------------|------------------------|------------------|

---------------------|--5--5------------------|------------------|

----2--2----3--------|--5--5----5--5----7--7--|------------------|

----2--2----3--------|--3--3----5--5----7--7--|------------------|

----0--0----1--------|----------3--3----5--5--|------------------|

------------------------|---------------------|------------------------|

------------------------|---------------------|------------------------|

--5--5------------------|---------------------|--5--5------------------|

--5--5----5--5----7--7--|----2--2----3--------|--5--5----5--5----7--7--|

--3--3----5--5----7--7--|----2--2----3--------|--3--3----5--5----7--7--|

----------3--3----5--5--|----0--0----1--------|----------3--3----5--5--|

------------------|------------------------|---------------------|

------------------|------------------------|---------------------|

------------------|--5--5------------------|---------------------|

------------------|--5--5----5--5----7--7--|----2--2----3--------|

------------------|--3--3----5--5----7--7--|----2--2----3--------|

------------------|----------3--3----5--5--|----0--0----1--------|

------------------------|------------------|-------------------|

------------------------|------------------|-------------------|

--5--5------------------|------------------|-------------------|

--5--5----5--5----7--7--|------------------|--7----------------|

--3--3----5--5----7--7--|------------------|--7----------------|

----------3--3----5--5--|------------------|--5----------------|

-------------------|-------------------|-------------------|-------------------|

-------------------|-------------------|-------------------|-------------------|

-------------------|--5----------------|-------------------|-------------------|

--3----------------|--5----------------|--2----------------|--7----------------|

--3----------------|--3----------------|--2----------------|--7----------------|

--1----------------|-------------------|--0----------------|--5----------------|

-------------------|-------------------|-----------------------|

-------------------|-------------------|-----------------------|

-------------------|--5----------------|-----------------------|

--3----------------|--5----------------|--2----2--2----2----2--|

--3----------------|--3----------------|--2----2--2----2----2--|

--1----------------|-------------------|--0----0--0----0----0--|

-----------------------|------------------------|-----------------------|

-----------------------|------------------------|-----------------------|

--------------------3--|----0--3--0--3----0-----|--------------------3--|

--2----2--2----2-------|---------------------5--|----7--7--7--7---------|

--2----2--2----2-------|---------------------5--|----7--7--7--7---------|

--0----0--0----0-------|---------------------3--|----5--5--5--5---------|

------------------------|-----------------------|------------------------|

------------------------|-----------------------|------------------------|

----0--3--0--3----0-----|--------------------3--|----0--3--0--3----0-----|

---------------------5--|----7--7--7--7---------|---------------------5--|

---------------------5--|----7--7--7--7---------|---------------------5--|

---------------------3--|----5--5--5--5---------|---------------------3--|

-----------------------|------------------------|------------------|

-----------------------|------------------------|------------------|

--------------------3--|----0--3--0--3----------|------------------|

----7--7--7--7---------|------------------7--7--|------------------|

----7--7--7--7---------|------------------7--7--|------------------|

----5--5--5--5---------|------------------5--5--|------------------|

------------------------|---------------------|------------------------|

------------------------|---------------------|------------------------|

--5--5------------------|---------------------|--5--5------------------|

--5--5----5--5----7--7--|----2--2----3--------|--5--5----5--5----7--7--|

--3--3----5--5----7--7--|----2--2----3--------|--3--3----5--5----7--7--|

----------3--3----5--5--|----0--0----1--------|----------3--3----5--5--|

------------------|------------------------|---------------------|

------------------|------------------------|---------------------|

------------------|--5--5------------------|---------------------|

------------------|--5--5----5--5----7--7--|----2--2----3--------|

------------------|--3--3----5--5----7--7--|----2--2----3--------|

------------------|----------3--3----5--5--|----0--0----1--------|

------------------------|------------------|------------------------|

------------------------|------------------|------------------------|

--5--5------------------|------------------|--5--5------------------|

--5--5----5--5----7--7--|------------------|--5--5----5--5----7--7--|

--3--3----5--5----7--7--|------------------|--3--3----5--5----7--7--|

----------3--3----5--5--|------------------|----------3--3----5--5--|

---------------------|------------------------|------------------|

---------------------|------------------------|------------------|

---------------------|--5--5------------------|------------------|

----2--2----3--------|--5--5----5--5----7--7--|------------------|

----2--2----3--------|--3--3----5--5----7--7--|------------------|

----0--0----1--------|----------3--3----5--5--|------------------|

------------------------|---------------------|------------------------|

------------------------|---------------------|------------------------|

--5--5------------------|---------------------|--5--5------------------|

--5--5----5--5----7--7--|----2--2----3--------|--5--5----5--5----7--7--|

--3--3----5--5----7--7--|----2--2----3--------|--3--3----5--5----7--7--|

----------3--3----5--5--|----0--0----1--------|----------3--3----5--5--|

------------------|-------------------|-------------------|-------------------|

------------------|-------------------|-------------------|-------------------|

------------------|-------------------|-------------------|--5----------------|

------------------|--7----------------|--3----------------|--5----------------|

------------------|--7----------------|--3----------------|--3----------------|

------------------|--5----------------|--1----------------|-------------------|

-------------------|-------------------|-------------------|-------------------|

-------------------|-------------------|-------------------|-------------------|

-------------------|-------------------|-------------------|--5----------------|

--2----------------|--7----------------|--3----------------|--5----------------|

--2----------------|--7----------------|--3----------------|--3----------------|

--0----------------|--5----------------|--1----------------|-------------------|

-----------------------|----------------------|-------------------|

-----------------------|----------------------|-------------------|

-----------------------|----------------------|-------------------|

--2----2--2----2----2--|--2----2--2----2------|--7----------------|

--2----2--2----2----2--|--2----2--2----2------|--7----------------|

--0----0--0----0----0--|--0----0--0----0------|--5----------------|

-------------------|-------------------|-------------------|-------------------|

-------------------|-------------------|-------------------|-------------------|

-------------------|--5----------------|-------------------|-------------------|

--3----------------|--5----------------|--2----------------|--7----------------|

--3----------------|--3----------------|--2----------------|--7----------------|

--1----------------|-------------------|--0----------------|--5----------------|

-------------------|-------------------|-----------------------|

-------------------|-------------------|-----------------------|

-------------------|--5----------------|-----------------------|

--3----------------|--5----------------|--2----2--2----2----2--|

--3----------------|--3----------------|--2----2--2----2----2--|

--1----------------|-------------------|--0----0--0----0----0--|

-----------------------|------------------------|-----------------------|

-----------------------|------------------------|-----------------------|

--------------------3--|----0--3--0--3----0-----|--------------------3--|

--2----2--2----2-------|---------------------5--|----7--7--7--7---------|

--2----2--2----2-------|---------------------5--|----7--7--7--7---------|

--0----0--0----0-------|---------------------3--|----5--5--5--5---------|

------------------------|-----------------------|------------------------|

------------------------|-----------------------|------------------------|

----0--3--0--3----0-----|--------------------3--|----0--3--0--3----0-----|

---------------------5--|----7--7--7--7---------|---------------------5--|

---------------------5--|----7--7--7--7---------|---------------------5--|

---------------------3--|----5--5--5--5---------|---------------------3--|

-----------------------|------------------------|------------------|

-----------------------|------------------------|------------------|

--------------------3--|----0--3--0--3----------|------------------|

----7--7--7--7---------|------------------7--7--|------------------|

----7--7--7--7---------|------------------7--7--|------------------|

----5--5--5--5---------|------------------5--5--|------------------|

------------------|--------------------|------------------------|

------------------|--------------------|------------------------|

------------------|--14/---------------|--5--5------------------|

------------------|--14/---------------|--5--5----5--5----7--7--|

------------------|--12/---------------|--3--3----5--5----7--7--|

------------------|--------------------|----------3--3----5--5--|

---------------------|------------------------|------------------|

---------------------|------------------------|------------------|

---------------------|--5--5------------------|------------------|

----2--2----3--------|--5--5----5--5----7--7--|------------------|

----2--2----3--------|--3--3----5--5----7--7--|------------------|

----0--0----1--------|----------3--3----5--5--|------------------|

------------------------|---------------------|------------------------|

------------------------|---------------------|------------------------|

--5--5------------------|---------------------|--5--5------------------|

--5--5----5--5----7--7--|----2--2----3--------|--5--5----5--5----7--7--|

--3--3----5--5----7--7--|----2--2----3--------|--3--3----5--5----7--7--|

----------3--3----5--5--|----0--0----1--------|----------3--3----5--5--|

Guitar 2 (solo):

E||--------------------|-----------5---------|

B||--------------------|--------------5------|

G||---------------5----|--7b-----------------|

D||------------7-------|---------------------|

A||--------------------|---------------------|

E||--------------------|---------------------|

--------------------|--------5--------5--------|--------------------|

--8--5--------------|-----5--------5-----------|--------------------|

--------------------|--7b-------7b-------7b-5--|-----------2--------|

--------------------|--------------------------|--------------------|

--------------------|--------------------------|--------------------|

--------------------|--------------------------|--0-----------------|

----------------------------------|----------------------------|

----------------------------------|------------------------17--|

--19b-21--21--21--21--21--21--21--|--21--19--17----------------|

----------------------------------|--------------19------------|

----------------------------------|----------------------------|

----------------------------------|----------------------------|

--------------------------------|------------------------|

--20----20b-22--22--22--20--17--|------------------------|

--------------------------------|--19r---17--------------|

--------------------------------|------------19----------|

--------------------------------|------------------------|

--------------------------------|------------------------|

------------------------------|------------------------------|

--17--17----17--20--17----17--|--17--17----17--20--17----17--|

------------------------------|------------------------------|

------------------------------|------------------------------|

------------------------------|------------------------------|

------------------------------|------------------------------|

------------------------------|--------------------------|

--17--17----17--20--17----17--|--------------------------|

------------------------------|--------17----19----17----|

------------------------------|--19----------------------|

------------------------------|--------------------------|

------------------------------|--------------------------|

--------------------------|------------------------|------------------------|

--------------------------|-------------5----------|-------------5----------|

--------------------------|-----5----7-----7--5----|-----5----7-----7--5----|

--19----17--18--19--------|--7---------------------|--7---------------------|

--------------------------|------------------------|------------------------|

--------------------------|------------------------|------------------------|

-------------------|

-------------------|

--2----------------|

-------------------|

-------------------|

-------------------|

Added by tabs-database.com and our distinguished partners

Get this song at:  amazon.com sheetmusicplus.com

Share your thoughts

0 Comments found