Boehse Onkelz

Boehse Onkelz - Auf Gute Freunde Bass guitar tab

Intro: (Bass setzt beim 3. mal ein)

G-|------|------|------|------|

D-|------|------|------|------|

A-|------|------|------|------|

E-|-5-7~-|-7-3~-|-3-7~-|-7-3~-|

G-|-----------------|-----------------|-----------------|-----------------|

D-|-----------------|-----------------|-----------------|-----------------|

A-|-----------------|-----------------|-----------------|-----------------|

E-|-7-7-7-7-7-7-7-7-|-3-3-3-3-3-3-3-3-|-7-7-7-7-7-7-7-7-|-3-3-3-3-3-3-3-3-|

Strophe:

G-|-----------------|-----------------|-----------------|-----------------|

D-|-----------------|-----------------|-----------------|-----------------|[4x]

A-|-----------------|-----------------|-5-5-5-5-5-5-5-5-|-----------------|

E-|-7-7-7-7-7-7-7-7-|-3-3-3-3-3-3-3-3-|-----------------|-5-5-5-5-5-4-5-6-|

G-|-----------------|-----------------|-----------------|-----------------|

D-|-----------------|-----------------|-----------------|-----------------|

A-|-----------------|-----------------|-5-5-5-5-5-5-5-5-|-----------------|

E-|-7-7-7-7-7-7-7-7-|-3-3-3-3-3-3-3-3-|-----------------|-5-5-5-5-5-5-5-5-|

Refrain:

G-|-----------------|-----------------|-----------------|-----------------|

D-|-----------------|-----------------|-----------------|-----------------|[4x]

A-|-----------------|-----------------|-5-5-5-5-5-5-5-5-|---------7-5-----|

E-|-7-7-7-7-7-7-7-7-|-3-3-3-3-3-3-3-3-|-----------------|-5-5-5-5-----7-5-|

Übergang:

G-|-----------------|-----------------|-----------------|-----------------|

D-|-----------------|-----------------|-----------------|-----------------|

A-|-----------------|-----------------|-----------------|-----------------|

E-|-7-7-7-7-7-7-7-7-|-3-3-3-3-3-3-3-3-|-7-7-7-7-7-7-7-7-|-3-3-3-3-3-3-3-3-|

Strophe:

G-|-----------------|-----------------|-----------------|-----------------|

D-|-----------------|-----------------|-----------------|-----------------|[4x]

A-|-----------------|-----------------|-5-5-5-5-5-5-5-5-|-----------------|

E-|-7-7-7-7-7-7-7-7-|-3-3-3-3-3-3-3-3-|-----------------|-5-5-5-5-5-4-5-6-|

G-|-----------------|-----------------|-----------------|-----------------|

D-|-----------------|-----------------|-----------------|-----------------|

A-|-----------------|-----------------|-5-5-5-5-5-5-5-5-|-----------------|

E-|-7-7-7-7-7-7-7-7-|-3-3-3-3-3-3-3-3-|-----------------|-5-5-5-5-5-5-5-5-|

Refrain:

G-|-----------------|-----------------|-----------------|-----------------|

D-|-----------------|-----------------|-----------------|-----------------|[4x]

A-|-----------------|-----------------|-5-5-5-5-5-5-5-5-|---------7-5-----|

E-|-7-7-7-7-7-7-7-7-|-3-3-3-3-3-3-3-3-|-----------------|-5-5-5-5-----7-5-|

Bridge: (Das Gras war grüner...) [2x]

G-|-----------------|-----------------|-----------------|-----------------|

D-|-----------------|-----------------|-----------------|-----------------|

A-|-----------------|-----------------|-5-5-5-5-5-5-5-5-|-----------------|

E-|-3-3-3-3-3-3-3-3-|-5-5-5-5-5-5-5-5-|-----------------|-7-7-7-7-7-7-7-7-|

G-|-----------------|-----------------|-----------------|-----------------|

D-|-----------------|-----------------|-----------------|-----------------|

A-|-----------------|-----------------|-----------------|-----------------|

E-|-3-3-3-3-3-3-3-3-|-5-5-5-5-5-5-5-5-|-7-7-7-7-7-7-7-7-|-3-3-3-3-3-3-3-3-|

Solo: [4x]

G-|-----------------|-----------------|-----------------|-----------------|

D-|-----------------|-----------------|-----------------|-----------------|

A-|-----------------|-----------------|-5-5-5-5-5-5-5-5-|-----------------|

E-|-7-7-7-7-7-7-7-7-|-3-3-3-3-3-3-3-3-|-----------------|-5-5-5-5-5-5-5-5-|

Strophe:

G-|-----------------|-----------------|-----------------|-----------------|

D-|-----------------|-----------------|-----------------|-----------------|[4x]

A-|-----------------|-----------------|-5-5-5-5-5-5-5-5-|-----------------|

E-|-7-7-7-7-7-7-7-7-|-3-3-3-3-3-3-3-3-|-----------------|-5-5-5-5-5-4-5-6-|

G-|-----------------|-----------------|-----------------|-----------------|

D-|-----------------|-----------------|-----------------|-----------------|

A-|-----------------|-----------------|-5-5-5-5-5-5-5-5-|-----------------|

E-|-7-7-7-7-7-7-7-7-|-3-3-3-3-3-3-3-3-|-----------------|-5-5-5-5-5-5-5-5-|

Refrain:

G-|-----------------|-----------------|-----------------|-----------------|

D-|-----------------|-----------------|-----------------|-----------------|[8x]

A-|-----------------|-----------------|-5-5-5-5-5-5-5-5-|---------7-5-----|

E-|-7-7-7-7-7-7-7-7-|-3-3-3-3-3-3-3-3-|-----------------|-5-5-5-5-----7-5-|

Outro:

G-|-----------------|-----------------|-----------------|-----------------|

D-|-----------------|-----------------|-----------------|-----------------|

A-|-----------------|-----------------|-----------------|-----------------|

E-|-7-7-7-7-7-7-7-7-|-3-3-3-3-3-3-3-3-|-7-7-7-7-7-7-7-7-|-3-3-3-3-3-3-3-3-|Added by tabs-database.com and our distinguished partners

Get this song at:  amazon.com sheetmusicplus.com

Share your thoughts

0 Comments found