Boehse Onkelz

Boehse Onkelz - Alkohohl (live Aus Frankfurt) guitar tab

tabs-database.com[http://www.tabs-database.com.com/]

Boehse Onkelz

Alkohohl (Live aus Frankfurt)

20 Jahre-Live In Frankfurt

Ich Bin Mir 100%

Main Riff

E|-------------------------------------------------------------------------------------------------------------------------------------------------------

B|-------------------------------------------------------------------------------------------------------------------------------------------------------

G|-5-----8----10-----8----10-----8-----5---------5-----8----10-----8----10-----8-----5-----5-----8-----13----10-----13--10---5-----8----------------------

D|--------------------------------------------------------------------------------------------------------------------------------------8-8--------------

A|-3-----6-----8-----6-----8-----6-----3---------3-----6-----8-----6-----8-----6-----3-----3-----6-----11-----8-----11---8---3-----6----6-6--------------

E|-------------------------------------------------------------------------------------------------------------------------------------------------------

Verse

E|-2b--0---2b---0---2b----0----2b----0----------------------

Refrain: Alkohohl oh Alkohohl!

E|-------------------------------------------------------------------------------------------------------------------------------------------------------------

G|--6-6-6-6-6-6-6-6-----------------------------------------------------------------------------------------------------------------------------------------

D|--6-6-6-6-6-6-6-6---6-6-6-6-6-6-6-6--------------------------------------------------------------------------------------------------------------------

A|--4-4-4-4-4-4-4-4---6-6-6-6-6-6-6-6--------------------------------------------------------------------------------------------------------------------

E|--------------------4-4-4-4-4-4-4-4------------------------------------------------------------------------------------------------------------

Added by tabs-database.com and our distinguished partners

Get this song at:  amazon.com sheetmusicplus.com

Share your thoughts

0 Comments found