Boehse Onkelz

Boehse Onkelz - 1197 guitar tab

INTRO: Gitarre 1

e ---------------------------------------------------|

B ---------------------------------------------------|

G ---------------------------------------------------|

D ---------------------------------------------------|

A ---------------------------------------------------|

E --3-X-X-3-X-5-0----3-X-X-3-X-5-5-------------------|

Gitarre 2 (ab 00:11)

e ---------------------------------------------------|

B ---------------------------------------------------|

G ---------------------------------------------------|

D --2------------2------------2------------2---------|

A --2------------2------------2------------2---------|

E --0------------0------------0------------0---------|

RIFF 1: 4x

e ---------------------------------------------------|

B ---------------------------------------------------|

G ----------------------------------------------7----|

D --2--2-2--2--2--2-2--2--2--X-X---5--5---X-X---7----|

A --2--2-2--2--2--2-2--2--2--X-X---5--5---X-X---5----|

E --0--0-0--0--0--0-0--0--0--X-X---3--3---X-X--------|

p.m. ... . .

RIFF 2: 2x

e ---------------------------------------------------|

B -----8--8--7---------------------------------------|

G --9--------------7/9-------------------------------|

D --------------9------------------------------------|

A -----------------------------------2-----2---2-----|

E ---------------------------0-0-0-0-0-0-0-0-0-0-----|

p.m.... ... .

e ---------------------------------------------------|

B ---------------------------------------------------|

G ---------------------------------------------------|

D ---------------------------------------------------|

A ----------2-----2----------------------------------|

E --0-0-0-0-0-0-0-0----------------------------------|

pm..... ...

RIFF 3: 4x

e ---------------------------------------------------|

B ---------------------------------------------------|

G -----------7------------7--------------------------|

D -----5--7---------5--7-----7--5--------------------|

A --7------------7-----------------------------------|

E ---------------------------------------------------|

RIFF 4: 4x

e ---------------------------------------------------|

B --------------3--3--------------------3--3---------|

G --------0--0--------0--0--------0--0--------0--0---|

D --2--2--------------------2--2---------------------|

A ---------------------------------------------------|

E ---------------------------------------------------|

p.m..............................................

e ---------------------------------------------------|

B --------------3--3--------------------3--3---------|

G --2--2--0--0--------0--0--2--2--0--0--------0--0---|

D ---------------------------------------------------|

A ---------------------------------------------------|

E ---------------------------------------------------|

p.m..............................................

INTRO

RIFF 1

RIFF 2

RIFF 3

RIFF 2

RIFF 4

RIFF 2

RIFF 2Added by tabs-database.com and our distinguished partners

Get this song at:  amazon.com sheetmusicplus.com

Share your thoughts

0 Comments found