Bluegrass

Bluegrass - Cotton Eyed Joe banjo guitar tab

verse

D-0-0-0|----0----0-----0|----0----2-----0--------|

B-0-1-2|2h3----3-----3--|--0------1--------------|

G------|----------------|------------------------|

D------|----------------|------------------------|

G------|-----0-----0----|0------0----0-----------|

D--------0--------0|----0---0----0|---0---0----0----|

B----0--------0----|---0----------|2h3---3----3-----|

G2/3-------3\2--0--|2/3-----2-----|-----------------|

D------------------|--------------|-----------------|

G------0-----------|------0----0--|-----0----0------|

D--0---2---0|------0-------0|-------------------------|

B-0----1----|---0------0----|-------------------------|

G-----------|2/3------2-----|-0--repeat---------------|

D-----------|------------4--|-------------------------|

G0---0---0--|-----0---------|-------------------------|

chorus

D--0-----|0-2--5----7|--2----0----2-------------------|

B--------|-----------|-3--------3---------------------|

G-0---0--|-----------|--------------------------------|

D--------|-----------|--------------------------------|

G0---0--0|--0--0--0--|0---0---------------------------|

D---2--0---0|--0---0----0|---------------------------|

B-------0---|0-----------|--repeat-------------------|

G--------5--|----2---0---|--with no-intro------------|

D-----------|------------|---------------------------|

G0--0-------|-----------0|---------------------------|

Get this song at:  amazon.com sheetmusicplus.com

Share your thoughts

0 Comments found