Bluegrass

Foggy Mountain Breakdown banjo Tabs



More from Bluegrass

Bluegrass Tabs
Bluegrass Chords

Gtr I (G D G B D) - 'Banjo Lead'

  Q=260
              G
 4/4
  Gtr I
  Q  Q  Q  Q      E E E E E E E E   E E E E E E E E
|----0--0--0--||----0---0-----0---|---0---0-----0---|
|----0--1--2--||o-2h3-2h3---0-----|-2h3-2h3---0-----|
|-------------||------------------|-----------------|
|-------------||o-----------------|-----------------|
|-------------||----------0-----0-|---------0-----0-|


  E E E E E E E E   E E E E E E Q
|---0---0-----0---|---0-----0--------||
|-2h3-2h3---------|------------------||
|-----------3p2---|-0-----0---0------||
|-----------------|-------------1S===||
|---------0-----0-|-----0------------||


  Em                              G
  Q  Q  Q  Q    S S E E E E E E E   E E E E E E E E   E E E E E E Q
|----2--------|-------2---2-----2-|---0-----0-----0-|---0-----0-------||
|-------0-----|-----0-------0-----|-----------------|-----------------||
|----------0--|---------------0---|-0-----2S3-0-----|-0-----0---0-----||
|-2-----------|-0h2---------------|-------------2---|-------------1S==||
|-------------|---------0---------|-----0-----------|-----0-----------||


  Em                              G
  Q  Q  Q  Q    S S E E E E E E E   E E E E E E E E   E E E E E E E E
|----2--------|-------2---2-----2-|---0-----0-----0-|---0-----0-----0-||
|-------0-----|-----0-------0-----|-----------------|-----------------||
|----------0--|---------------0---|-0-----2S3-0-----|-0-----2S3-0-----||
|-2-----------|-0h2---------------|-------------2---|-------------2---||
|-------------|---------0---------|-----0-----------|-----0-----------||


                                                      1.
  D                                G
  Q  E E E E E E   E E E E E E E E   E E E E E E E E   Q  Q  Q  Q
|------0-----0---|---0---0-----0---|---0-----0-----0-|----0-----0----||
|----2h3---3-----|-2h3-2h3---------|-----------------|-------0------o||
|----------------|-----------3p2---|-0-----2S3-0-----|-0-------------||
|-0--------------|-----------------|-------------2---|--------------o||
|--------0-----0-|---------0-----0-|-----0-----------|----0-----0----||


  2.
              G
  Q  Q  Q  Q     E  E  E  E E  E  E E
|----0-----0--|-----0-----0-------0---|
|-------0-----|-10h11-10h11---10h11---|
|-0-----------|-----------------------|
|-------------|-----------------------|
|----0-----0--|-------------0-------0-|


   E  E  E  E E  E  E E    E  E  E  E E  E  E E
|-----0-----0-------0---|-----0-----0-------0---||
|-10h11-10h11---10-11---|-10h11-10h11---10h11---||
|-----------------------|-----------------------||
|-----------------------|-----------------------||
|-------------0-------0-|-------------0-------0-||


                 Em                                G
  Q  E E E E E E   Q  Q  Q  Q    E E E  E  E E E E   E E E  E  E E E E
|--------9-----9-|----9--------|---9-------9-----9-|---9-------9-----9-||
|-8----8-----8---|-------8-----|-8-----11h12-8-----|-8-----11h12-8-----||
|----------------|-9--------9--|---------------9---|---------------9---||
|----------------|-------------|-------------------|-------------------||
|----0-----0-----|-------------|-----0-------------|-----0-------------||


                 Em                                G
  Q  E E E E E E   Q  Q  Q  Q    E E E  E  E E E E   E E E  E  E E E E
|--------9-----9-|----9--------|---9-------9-----9-|---9-------9-----9-||
|-8----8-----8---|-------8-----|-8-----11h12-8-----|-8-----11h12-8-----||
|----------------|-9--------9--|---------------9---|---------------9---||
|----------------|-------------|-------------------|-------------------||
|----0-----0-----|-------------|-----0-------------|-----0-------------||


                 D
  Q  E E E E  Q     E  E  E  E E  E  E E
|--------0-------|----------12------12---|
|-8----8---------|-------10------10------|
|------------10--|-10S11-----------------|
|----------------|-----------------------|
|----0-----0-----|-------------0-------0-|


                        G
   E  E  E  E E  E  E E   E E E E E  E  E E
|----12----12------12---|-9-----9-------9---||
|-11----11------11------|---8-------11h12---||
|-----------------------|-----9-------------||
|-----------------------|-------------------||
|-------------0-------0-|---------0-------0-||


                G
  Q  E E E E Q     E  E  E  E E  E  E E
|--------9------|----------17------17---|
|-8----8-----8--|-14S15-15------15------|
|---------------|-----------------------|
|---------------|-----------------------|
|----0-----0----|-------------0-------0-|


   E  E  E  E E  E  E E    E  E  E  E E  E  E E
|----21----21------21---|----17----17-------0---||
|-20----20------20------|-15----15------10h11---||
|-----------------------|-----------------------||
|-----------------------|-----------------------||
|-------------0-------0-|-------------0-------0-||


                 Em                                G
  Q  E E E E E E   Q  Q  Q  Q    E E E  E  E E E E   E E E  E  E E E E
|--------9-----9-|----9--------|---9-------9-----9-|---9-------9-----9-||
|-8----8-----8---|-------8-----|-8-----11h12-8-----|-8-----11h12-8-----||
|----------------|-9--------9--|---------------9---|---------------9---||
|----------------|-------------|-------------------|-------------------||
|----0-----0-----|-------------|-----0-------------|-----0-------------||


                 Em                                G
  Q  E E E E E E   Q  Q  Q  Q    E E E  E  E E E E   E E E  E  E E E E
|--------9-----9-|----9--------|---9-------9-----9-|---9-------9-----9-||
|-8----8-----8---|-------8-----|-8-----11h12-8-----|-8-----11h12-8-----||
|----------------|-9--------9--|---------------9---|---------------9---||
|----------------|-------------|-------------------|-------------------||
|----0-----0-----|-------------|-----0-------------|-----0-------------||


                 D
  Q  E E E E  Q     E  E  E  E E  E  E E
|--------0-------|----------12------12---|
|-8----8---------|-------10------10------|
|------------10--|-10S11-----------------|
|----------------|-----------------------|
|----0-----0-----|-------------0-------0-|


                        G
   E  E  E  E E  E  E E   E E E E E  E  E E
|----12----12------12---|-9-----9-------9---||
|-11----11------11------|---8-------11h12---||
|-----------------------|-----9-------------||
|-----------------------|-------------------||
|-------------0-------0-|---------0-------0-||


              G
  Q  Q  Q  Q    E E E E E E E E   E E E E E E E E   E E E E E E E E
|-------0-----|-----5---4-----4-|-----3---4-----4-|-----5-----4-----||
|-8-----------|---7-------6-----|---5-------6-----|---7-----6-----7-||
|-------------|-----------------|-----------------|-----------------||
|-------------|-----------------|-----------------|-----------------||
|----0-----0--|-0-----0-----0---|-0-----0-----0---|-0-----0-----0---||


                  Em                                G
  E E E E E E E E   Q  Q  Q  Q    S S E E E E E E E   E E E E E E E E
|-5-----4-----0---|----2--------|-------2---2-----2-|---0-----0-----0-||
|-----6-----5---0-|-------0-----|-----0-------0-----|-----------------||
|-----------------|----------0--|---------------0---|-0-----2S3-0-----||
|-----------------|-2-----------|-0h2---------------|-------------2---||
|---0-----0-------|-------------|---------0---------|-----0-----------||


                 Em                                G
  E E E E E E Q    Q  Q  Q  Q    S S E E E E E E E   E E E E E E E E
|---0-----0------|----2--------|-------2---2-----2-|---0-----0-----0-||
|----------------|-------0-----|-----0-------0-----|-----------------||
|-0-----0---0----|----------0--|---------------0---|-0-----2S3-0-----||
|-------------1S=|=2-----------|-0h2---------------|-------------2---||
|-----0----------|-------------|---------0---------|-----0-----------||


          
Get this song at amazon.com      Ebay     Ringtones Ringtones  


Learn to play: Songwriting, Piano, Harmonica, Guitar

Related Bluegrass Tabs

Rollin In My Sweet Baby's Arms banjo tabs
Down Yonder lead tabs
You Are My Sunshine lead tabs
Jimmy In The Swamp tabs
Wildwood Flower (1920's) tabs
Old Joe Clark tabs
Red Hairded Boy (little Beggerman) tabs
Hallejuiah solo tabs
Gold Rush (Banjo ) banjo tabs
Will The Circle Be Unbroken banjo tabs
Foggy Mountain Breakdown tabs
Rocky Top lead tabs
Foggy Mountain Breakdown banjo tabs
Foggy Mountain Breakdown (i Think Fixed It) solo tabs
Red Haired Boy lead tabs
Whiskey Before Breakfast tabs
Salt Creek banjo tabs
Wildwood Flower (1930's) tabs
Cotton Eyed Joe banjo tabs
Shuckin The Corn banjo tabs


Guitar Tabs









All tabs are property and copyright of their owners. All tabs provided for educational purposes only. Privacy Policy, DMCA