Blink 182

Blink 182 - Feeling This Live guitar tab

okay so i got ahold of a video of blink playin feelin this live..and i

got kinda confused cause tom had a capo on the second fret..try to figure

that one out..

anyway less talk more play its in standerd tunin and listen to the song for

strumming pattern..this is prob 90% correct if not more..yeep

h=hammer

x>>>=pick slide

x=dont play string

intro:

e-------------------------------------------------------------

b-------------------------------------------------------------

g------------------1-1-1--------------------------------------

d-4-h2-2-2-2-2-2-2-------2-4-h2-2-2-2-2-2-2------------------- (1)

a-----------------------------------------2-------------------

E-----------------------------------------0-------------------

verse:

e--------------------------------------------------------------

b--------------------------------------------------------------

g--------------------------------------------------------------

d-4-h2-2-2-2-2--6-6-6------------------------------------------ (8)

a-2-2--2-2-2-2--7-7-7------------------------------------------

E-0-0--0-0-0-0--0-0-0------------------------------------------

chorus:

the bass plays the chorus, however tom strums it at the start of the chorus every

time..so it should go a lil like this:

fate fell short..

e---------------------------------------------------------------

b---------------------------------------------------------------

g--9------------------------------------------------------------

d--9------------------------------------------------------------

a--7------------------------------------------------------------

E--0------------------------------------------------------------

place your hand..

e---------------------------------------------------------------

b---------------------------------------------------------------

g--9------------------------------------------------------------

d--9------------------------------------------------------------

a--7------------------------------------------------------------

E--0------------------------------------------------------------

bridge:

tom uses a sorta up and down strumming motion for this part

e----------------------------------------------------------------------

b----------------------------------------------------------------------

g-9-9-9-9-9--11-11-11-11-11-13-13-13-13-13-14-14-14-14-14--------------

d-x-x-x-x-x--x--x--x--x--x--x--x--x--x--x--x--x--x--x--x---------------

a-7-7-7-7-7--9--9--9--9--9--11-11-11-11-11-12-12-12-12-12--------------

E-0-0-0-0-0--0--0--0--0--0--0--0--0--0--0---0--0--0--0--0--------------

verse:

e--------------------------------------------------------------

b--------------------------------------------------------------

g--------------------------------------------------------------

d-4-h2-2-2-2-2--6-6-6------------------------------------------ (8)

a-2-2--2-2-2-2--7-7-7------------------------------------------

E-0-0--0-0-0-0--0-0-0------------------------------------------

chorus:

the bass plays the chorus, however tom strums it at the start of the chorus every

time..so it should go a lil like this:

fate fell short..

e---------------------------------------------------------------

b---------------------------------------------------------------

g--9------------------------------------------------------------

d--9------------------------------------------------------------

a--7------------------------------------------------------------

E--0------------------------------------------------------------

place your hand..

e---------------------------------------------------------------

b---------------------------------------------------------------

g--9------------------------------------------------------------

d--9------------------------------------------------------------

a--7------------------------------------------------------------

E--0------------------------------------------------------------

after the part where he goes "this place is never the same again after you came and went"

they just play the chorus till they get to the awesome multi singing thing..but i'll tab it

out for ya..

chorus2:

e-----------------------------------------------------------

b-----------------------------------------------------------

g-9-9-9-9-----------6-6-6-6---------------------------------

d-9-9-9-9--9-9-9-9--6-6-6-6--7-7-7-7------------------------ (1)

a-7-7-7-7--9-9-9-9--4-4-4-4--7-7-7-7------------------------

E-0-0-0-0--7-7-7-7-----------5-5-5-5------------------------

on the second time tom starts strumming faster and faster till finially

he does a pick slide

e-----------------------------------------------------------------

b-----------------------------------------------------------------

g-9-9-9-9---------------6-6-6-6-6-6-6-6---------------------------

d-9-9-9-9--9-9-9-9-9-9--6-6-6-6-6-6-6-6--7-7-7-7-7-7-7-7---------- (1)

a-7-7-7-7--9-9-9-9-9-9--4-4-4-4-4-4-4-4--7-7-7-7-7-7-7-7----------

E-0-0-0-0--7-7-7-7-7-7-------------------5-5-5-5-5-5-5-5-x>>------

e-----------------------------------------------------------------

b-----------------------------------------------------------------

g-9-9-9-9-----------6-6-6-6---------------------------------------

d-9-9-9-9--9-9-9-9--6-6-6-6--7-7-7-7------------------------------ (4)

a-7-7-7-7--9-9-9-9--4-4-4-4--7-7-7-7------------------------------

E-0-0-0-0--7-7-7-7-----------5-5-5-5------------------------------

aight thats it

its like as real as u can get

yeep..

matt hibbard

Get this song at:  amazon.com

Share your thoughts

0 Comments found