Blink 182

Blink 182 - Dysentery Gary bass tab

Dysentery Gary

Enema of the State

Blink 182

Intro x1

G/-------------------------- p= pull off

D/-------------------------- h= hammer on

A/----5~---------------5---- ~= hold note

E/--------------------------

Pre-Verse x2

G/----------------------------------------

D/----------------------------------------

A/----5555555-55555555--------------------

E/--------------------3333335-55555555----

Verse (1) x1

G/--------------------------------------------------------------------

D/--------------------------------------------------------------------

A/----5----5---------5----5-------------------------------------------

E/-----5555-----------5555---------3-55553---------5-33335-33335-3----

Verse (2) x1

G/--------------------------------------------------------------------

D/--------------------------------------------------------------------

A/----5----5-55557-5-5----5-5555-7------------------------------------

E/-----5555-----------5555---------3-55553---------5-33335-33335-3----

Interlude x1

G/--------------------------------------------------------

D/----------------------------5-5-------------------------

A/----5-55-55-55-55-55-59-97-7----------------------------

E/-------------------------------3-33-33-35-55-57-79-9----

Pre-Chorus x1

G/--------------------------------------------------------------------

D/--------------------------------55555555555555557777777777777777----

A/----555555555555555555559-997-77------------------------------------

E/--------------------------------------------------------------------

Chorus x1

G/-------------------------------------------------------------------------------------/

D/----5-55555-555454547-77777-77779-7--------------------------------------------------/

A/------------------------------------5-55555-55557-5-2-22222-2-0-2-0------------------/

E/--------------------------------------------------------------------3-33333-33335-3-5/

/------------------

/------------------

/------------------

/-5555577779999----

Post Chorus x1

G/-----------------------------------------

D/-----------------------------------------

A/----5~-----------------------------------

E/---------------------3333335-55555555----

Pre verse x1

Verse (1) x1

Verse (2) x1

Interlude x2

Pre Chorus x1

Chorus x1

Second Interlude x3 x1

G/----------------------------------/-----------------------------

D/-----------------------5-----7----/-----------------------5~----

A/-----5--h7--p5--------------------/-----5--h7--p5---------------

E/----------------------------------/-----------------------------

Chorus x1

Outro x1

G/------------------------

D/------------------------

A/----5~-------------5----

E/------------------------

Yep. Thats the whole song. This is my first tab, so please rate

it! Thanks.

And... Enjoy your tab. -Godofbass208

Get this song at:  amazon.com

Share your thoughts

0 Comments found