Blink 182

Blink 182 - Dysentery Gary Acoustic guitar chord

Artist: BLink 182

Song:Dysentary Gary (acoustic)

I know there's no actual acoustic version of this song but i think every good

punk song should have one.. but what do i know... welp have a look:

Chords:

D G A

E|--2----3-----0----|

B|--3----3-----2----|

G|--2----0-----2----|

D|--0----0-----2----|

A|--x----2-----0----|

E|--x----3-----x----|

INTRO(not palm muted, let ring):

E|-----------------------------------------------------------|

B|-----------------------------------------------------------|

G|-----------------------------------------------------------|

D|-4-4-4-4-------5-5-5-4-4-4---------------4-4-4-------------|

A|---------5-5-5-------------5-5-5-5-----------------4-4-4h5-|

E|-----------------------------------3-3-3-------5-5---------|

INTRO CONT.:

D G A(x2)

D D

Got a lotta heart ache. He's a fucken weasel.

G A

His issues make my mind ache. Wanna make a deal.

D D

Cause I love your little motions. You with your pigtails.

G A

What a nice creation. Worth another night in jail.

D

He's a player, diarrhea giver, tried to grow his hair out,

when friends were listening to Slayer.

G

I would like to find him Friday night.

A

Hanging out with mom and trying on his father's tights.

RIFF 1(let ring): (6x)

E|---3--2--------------------|

B|------------3--------------|

G|-------------------0-0-0---|

D|---------------------------|

A|---------------------------|

E|---------------------------|

(1) (2) (3) (4)

Life just sucks, I lost the one. I'm giving up, she found someone.

(5) (6)

There's plenty more. Girls are such a drag.

Intro

D D

So all you little ladies. Be sure to choose the right guys.

G A

You'll come back to me maybe. I'll shower you with lies.

D D

Got a lotta heart ache. He's a fucken weasel.

G A

Decisions make my mind ache. Wanna make a deal.

D

Ease away the problems and the pain.

The girl chose the guy that makes you wanna kick and scream.

G

All along, you wish that she would stay.

A

Fuck the guy that took and ran away, yeah.

D

He's a player, diarrhea giver, tried to grow his hair out,

when friends were listening to Slayer.

G

I would like to find him Friday night.

A

Hanging out with mom and trying on his father's tights.

(1) (2) (3) (4)

Life just sucks, I lost the one. I'm giving up, she found someone.

(5) (6)

There's plenty more. Girls are such a drag.

(1) (2) (3) (4)

Fuck this place, I lost the war. I hate you all, your mom's a whore.

(5) (6) D(let ring out)

Where's my dog? Cause girls are such a drag.

That's all. Add what you want and be creative cuz hey i'm not holding you back.

Questions comments etc? lookmanocurse@hotmail.com

Only my second tab

Get this song at:  amazon.com

Share your thoughts

0 Comments found