Blink 182

Blink 182 - Dancing With Myself guitar tab

Band : Blink-182

Song : Dancing with myself

Me : molotov@wanadoo.fr

I saw that song was requested to be tabbed, so I tab it !

I transcibed this song for two guitar, but in live, the guitar 2 is the bass.

* means palm mute

> means let ring

( ) means ghost note

_____________________________________________________________________________

Intro

gtr1

e------------------------------------------------------------------

b------------------------------------------------------------------

g--5-5-4-5-7-5--5-5-4-5-7-5--5-5-4-5-7--5-5-4-5-7--5-5-4-5-7-------

d------------------------------------------------------------------

a------------------------------------------------------------------

e------------------------------------------------------------------

gtr2

e------------------------------------------------------------------

b------------------------------------------------------------------

g----------------5555555555555555555555555555555555555555555-------

d----------------5555555555555555555555555555555555555555555-------

a----------------3333333333333333333333333333333333333333333-------

e------------------------------------------------------------------

_____________________________________________________________________________

Riff #1

gtr1

e--------------------------------------------------

b--------------------------------------------------

g--5-5-4-5-7-5--5-5-4-5-7-5--5-5-4-5-7--5-5-4-5-7--

d--------------------------------------------------

a--------------------------------------------------

e--------------------------------------------------

gtr2

e--------------------------------------------------

b--************------------------------------------

g--555555555555-************-**********-**********-

d--555555555555-333333333333-5555555555-3333333333-

a--333333333333-333333333333-5555555555-3333333333-

e---------------111111111111-3333333333-1111111111-

_____________________________________________________________________________

Chorus #1

gtr1

e------------------------------------------------------

b-----8-7-6-----8-7-6-----8-7-6-----8-7-6------------

g--5--x-x-x-----x-x-x-----x-x-x-----x-x-x-------------

d--5--5-3-2--3--5-3-2--5--5-3-2--3--5-3-2--------------

a--3---------3---------5---------3---------------------

e------------1---------3---------1---------------------

gtr2

e------------------------------------------------------

b----*******-------------------------------------------

g--555555555---*******---*******---*******-------------

d--555555555-333333333-555555555-333333333-------------

a--333333333-333333333-555555555-333333333-------------

e------------111111111-333333333-111111111-------------

_____________________________________________________________________________

Chorus #2

gtr1

e------------------------------------------------------

b-----8-7-6-----8-7-6-----8-7-6-----8-7-6--------------

g--5--x-x-x-----x-x-x-----x-x-x-----x-x-x--------------

d--5--5-3-2--3--5-3-2--5--5-3-2--3--5-3-2--------------

a--3---------3---------5---------3---------------------

e------------1---------3---------1---------------------

gtr2

e------------------------------------------------------

b----*******-------------*******-----------------------

g--555555555---*******-555555555---*******-------------

d--555555555-333333333-555555555-555555555-------------

a--333333333-333333333-333333333-555555555-------------

e------------111111111-----------333333333-------------

_____________________________________________________________________________

Riff #2

gtr1

e-----------------------------------------------

b-----------------------------------------------

g-----------------------------------------------

d----****-****-********--****-****--------------

a-(1)3333-5555-10101010--3333-5555-10101010----- on the 6th time, repeat the

e----------------------------------------------- last note a lot

gtr2

e-----------------------------------------------

b---********************------------------------

g---55555555555555555555-******************-----

d---55555555555555555555-555555555555555555-----

a---33333333333333333333-555555555555555555-----

e------------------------333333333333333333-----

_____________________________________________________________________________

riff #3

gtr1 hold the bend, then progressivly release

e-----------------------------------------||-------

b-----------------------------------------\/------

g--5-5-4-5-7-5--5-5-4-5-7-5--5-5-4-5-7--5bbbbr-----

d--------------------------------------------------

a--------------------------------------------------

e--------------------------------------------------

gtr2

e--------------------------------------------------

b---***********------------------------------------

g--555555555555--***********--*********------------

d--555555555555-333333333333-5555555555-3>>>>>-----

a--333333333333-333333333333-5555555555-3>>>>>-----

e---------------111111111111-3333333333-1>>>>>-----

_____________________________________________________________________________

End

gtr1

e-----------------------------------------------------------------------

b-----------------------------------------------------------------------

g-----------------------------------------------------------------------

d-----------------------------------------------------------------------

a-----------------------------------------------------------------------

e-----------------------------------------------------------------------

gtr2

e------------------------------------------------------------------------

b------------------------------------------------------------------------

g--5555555555----------------- and for --5-------------------------------

d--5555555555-33333333333333-- the end --5-repeat a lot that note--------

a--3333333333-33333333333333-------------3-------------------------------

e-------------11111111111111---------------------------------------------

_____________________________________________________________________________

I have not do the order but it's easy to find it ! If you want to do it, you can send me it.

Conversion gtr 2 => bass

______________________________________________

| e----- | e----- |

| b----- | b----- |

| g-5--- g----- | g----- g----- |

| d-5--- => d----- | d-3--- => d----- |

| a-3--- a-3--- | a-3--- a----- |

| e----- e----- | e-1--- e-1--- |

| | |

|______________________|_______________________|

________________________

| e----- |

| b----- |

| g----- g----- |

| d-5--- => d----- |

| a-5--- a----- |

| e-3--- e-3--- |

|________________________|

Get this song at:  amazon.com

Share your thoughts

0 Comments found