Blink 182

Blink 182 - Boring bass tab

Band: blink 182

Song: Boring

Album: Dude Ranch

Intro:

G:---------------------------

D:---------------------------

A:-0-0-0-0-0-0--2-2-2-2-2-2--

E:---------------------------

Verse:

G:-------------------------

D:-------------------------

A:------5-5-5-------5-5-5--

E:5-5-5-------5-5-5--------

Chorus:

G:--------------------------------------------------------------------

D:--------------------------------------------------------------------

A:-----4-4---5-7-7-----4-4---5-7-7-----4-4---5-7-7----4-4---7-7-7-7---

E:-5-5-----4-------5-5-----4-------5-5-----4-------5-5----4-----------

Bridge:

G:----------------------------------------------------------------

D:-7-7-7--6-6-6------------------------6-6-6----------------------

A:--------------7-7-7-7-7-7-7-7--5-5-5-------7-7-7-7-7-7-7-7------

E:------------------------------------------------------------5-5-

This is the first bass tab for this song that is on the internet,i

think...It's very close,if not all right.

TAB: Matt Nielsen zorg500@hotmail.com

Get this song at:  amazon.com

Share your thoughts

0 Comments found