Blink 182

Blink 182 - Anthem Part Two bass tab

This is the right tab for Anthem Part II so enjoy

Intro 1

G-------------------------------------------------

D--------0-0-0-0-----3-3-3-3----------------------x6

A----3-3---------0-0------------------------------

E-------------------------------------------------

Intro 2

G-------------------------------------------------

D-------------------------------------------------

A--6-7-6-4-2--6-7-6-4-2--6-7-6-2-4--6-6-6-7-7-7-2-

E-------------------------------------------------

Verse

G-------------------------------------------------

D-------------------------------------------------

A--3-3-3-3-3-3--0-0-0-0-0-0-----------------------

E------------------------------1-1-1-1-1-1--------

G-------------------------------------------------

D--------------------------3-3-3-3----------------

A--3-3-3-3-3-3------------------------------------x2

E---------------0-0-0-0-0-------------------------

Lead to next verse and chorus

G-------------------------------------------------

D-------------------------------------------------

A----7-----5-----3--------------------------------

E--5---5-3---3-1---1------------------------------

Chorus

G-------------------------------------------------

D-------------------------------------------------x2

A-----------------3-3-----------------------------

E--0-0--1-1-1-1------3-3-3------------------------

G--------------------------------------------------

D--------------------------------------------------

A-----------------------------------3-3-3-3-3-3-3-3

E---5-5-5-5-5-5-5-5-1-1-1-1-1-1-1-1----------------

G-------------------------------------------------

D-------------------------------------------------

A-----------------------------3--------------------

E-3-3-3-3-3-3-3-3-5-5-5-5-1-1---------------------

order

intro1

intro two

verse

lead

verse

chorus

intro 2

verse

lead

chorus

verse

chorus

intro 1

intro 2

abc

Get this song at:  amazon.com

Share your thoughts

0 Comments found