Blink 182

Blink 182 - Alians Exist guitar tab

Intro

E|-----------------------------------------------------------|

B|-----------------------------------------------------------|

G|--444444444444--4------------------------------------------|

D|--444444444444--4------------------------------------------|

A|--222222222222--2------------------------------------------|

E|-----------------------------------------------------------|

PM ............

Verse riff 1

E|-----------------------------------------------------------|

B|-----------------------------------------------------------|

G|--44444444-------------------------------------------------|

D|--44444444-44444444-66666666-22222222----------------------|

A|--22222222-44444444-66666666-22222222----------------------|

E|-----------22222222-44444444-00000000----------------------|

PM ...................................

Verse riff 2

E|-----------------------------------------------------------|

B|-----------------------------------------------------------|

G|--44444444-66666666----------------------------------------|

D|--44444444-66666666-66666666-22222222----------------------|

A|--22222222-44444444-66666666-22222222----------------------|

E|--------------------44444444-00000000----------------------|

PM ...................................

Verse riff 3

E|-----------------------------------------------------------|

B|-----------------------------------------------------------|

G|--44444444-------------------------------------------------|

D|--44444444-22222222-66666666-22222222----------------------|

A|--22222222-22222222-66666666-22222222----------------------|

E|-----------00000000-44444444-00000000----------------------|

PM ...................................

Chorus

E|---------------------------------------------------------------------|

B|---------------------------------------------------------------------|

G|--4--4444-----------4--4444------------------------------------------|

D|--4--4444--4--4444--4--4444--4--4444-------------------9---9---9---9-|

A|--2--2222--4--4444--2--2222--4--4444---6---6---6---6--7-7-7-7-7-7-7-7|

E|-----------2--2222-----------2--2222--4-4-4-4-4-4-4-4----------------|

PM ...............................

E|-----------------------------------------------------------|

B|-----------------------------------------------------------|

G|--------4----------4---------------------------------------|

D|--4--2--4----4--2--4---------------------------------------|

A|--4--2--2----4--2--2---------------------------------------|

E|--2--0-------2--0------------------------------------------|

Bridge

E|-----------------------------------------------------------|

B|-----------------------------------------------------------|

G|--4-4-4-4-4-4-4-4-4-4-4-4-4-4-4-4-4-4-4-4-4-4-4-4-4-4------|

D|--x-x-x-x-x-x-x-x-x-x-x-x-x-x-x-x-x-x-x-x-x-x-x-x-x-x------|

A|--2-2-2-2-2-2-2-2-2-2-2-2-2-2-2-2-2-2-2-2-2-2-2-2-2-2------|

E|-----------------------------------------------------------|

E|-----------------------------------------------------------------|

B|-----------------------------------------------------------------|

G|--8-8-8-8-8-8-8-8-6-6-6-6-6-6-6-6-9-9-9-9-9-9-9-9-8-8-8-8-8-8-8-8|

D|--x-x-x-x-x-x-x-x-x-x-x-x-x-x-x-x-x-x-x-x-x-x-x-x-x-x-x-x-x-x-x-x|

A|--6-6-6-6-6-6-6-6-4-4-4-4-4-4-4-4-7-7-7-7-7-7-7-7-6-6-6-6-6-6-6-6|

E|-----------------------------------------------------------------|

After Bridge

E|-----------------------------------------------------------|

B|-----------------------------------------------------------|

G|--------------------------------44444444-------------------|

D|--66666666--44444444--22222222--44444444-------------------|

A|--66666666--44444444--22222222--22222222-------------------|

E|--44444444--22222222--00000000-----------------------------|

Get this song at:  amazon.com

Share your thoughts

0 Comments found