Blink 182

Wrecked Him Tabs



More from Blink 182

Blink 182 Tabs
Blink 182 Chords
Blink 182 Bass
Blink 182 Lyrics

tabs-database.com[http://www.tabs-database.com.com/]
Artist: Blink 182

Song: Wrecked Him (Wasting Time EP)

Tabbed By: sampeckham2301

Tuning: Standard (EADGBE)





Intro: (x2)

e|------------------------------------------------

B|------------------------------------------------

G|-----777-66------666-77------777-66------666-77-

D|-000---------555---------777---------555--------

A|------------------------------------------------

E|------------------------------------------------



Verse 1: (x4)

e|----------------------

B|----------------------

G|-7777-----------------

D|-7777-5555-7777-5555--

A|-5555-5555-7777-5555--

E|------3333-5555-3333--



Chorus: (x4)

e|----------------------

B|----------------------

G|-7777-----------------

D|-7777-2222-5555-7777--

A|-5555-2222-5555-7777--

E|------0000-3333-5555--



After that, play intro riff twice more.



Verse 2: (x2)

e|--------------------------

B|--------------------------

G|-7-777--------------------

D|-7-777-5-555-7-777-5-555--

A|-5-555-5-555-7-777-5-555--

E|-------3-333-5-555-3-333--

pm... ... ... ...



Now play verse 2 (x2)

followed by chorus (x4)



Solo:

e|------------------------------

B|------------------------------

G|------------------------------

D|----------------------4h5p4--- (x2)

A|-5555-4-5555-4-5-7-5-4-----5--

E|------------------------------





e|------------------------------------------------------------------------------------------------------

B|------------------------------------------------------------------------------------------------------

G|-7p6-7p6--9p6--7p6-7p6-7p6--9p6--7p6-7p6-7p6-7p6--9p6--7p6-7p6-7p6------------------------------------

D|--------------------------------------------------------------------7-5-4-5-7-5-4h5p4-----------------

A|-------------------------------------------------------------------------------------5--(pickscrape)--

E|------------------------------------------------------------------------------------------------------



Then play verse 1 (x4)

followed by chorus



End on:

e|-----

B|-----

G|-7~--

D|-7~--

A|-5~--

E|-----
Added by tabs-database.com and our distinguished partners
Get this song at amazon.com      Ebay     Ringtones Ringtones  


Learn to play: Songwriting, Piano, Harmonica, Guitar
Also available at Muzikum: Blink 182 - Wrecked Him lyrics

Related Blink 182 Tabs

What Went Wrong tabs
Peggy Sue Live tabs
Give Me One Good Reason Live tabs
Untitled Live tabs
Jono tabs
Lifes So Boring tabs
Cacophony Intro tabs
Violence (live) tabs
M&m's tabs
Transvestite tabs
Dicklips tabs
Take Off Your Pants & Jaket tabs
Adams Song(perfect) tabs
Depends tabs
Take Off Your Pants And Jacket tabs
Enthused tabs
The Enema Strikes Back tabs
Dysentary Gary tabs
Alone Intro tabs
Down tabs


Guitar Tabs









All tabs are property and copyright of their owners. All tabs provided for educational purposes only. Privacy Policy, DMCA