Blink 182

Wrecked Him Bass Tabs



More from Blink 182

Blink 182 Tabs
Blink 182 Chords
Blink 182 Bass
Blink 182 Lyrics



Song: Wrecked Him
Band: Blink 182
Album: Dick Lips Single
Tabbed by Gabriel Bernasconi, bassist for AfTeR_PaRtY
Mail to: Gabriel3112@ciudad.com.ar

Here is the correct version of this song. I think it´s pretty close to original version
, anyway if you don´t think
so (you must be deaf) e mail me.


Standard Tunning : E-A-D-G

Intro
G:|--7-7-7-7-7-7-7-7-----7-7-7-7-7-7-7-7--------------------------|
D:|--7-7-7-7-7-7-7-7-----5-5-5-5-5-5-5-5--------------------------|
A:|-------------------------------------------------------------------------|
E:|-------------------------------------------------------------------------|

Verse
G:|-----------------|-----------------|-----------------|-----------------|
D:|-----------------|-----------------|-----------------|-----------------|
A:|-5-5-5-5-5-5-5-5---------------|-----------------|-----------------|-----------------|
E:|-----------------|---3-3-3-3-3-3-3-3-|-5-5-5-5-5-5-5-5-|--3-3-3-3-3-3-3-3--|

Chorus
G:|-----------------|-----------------|-----------------|-----------------|
D:|-----------------|-----------------|-----------------|-----------------|
A:|-5-5-5-5-5-5-5-5---------------|----------------|-----------------|
E:|-----------------|-3-3-3-3-5-5-5-5-|------------|-----------------|


Interlude (Bridge)
G:|-11-11-11-11-11-11-|--11-11-11-11-11-11------|--6-6-6-6-6-6---------|-7-7-7-7-7-7-7----------|
D:|--0---0--0---0--0--0--|----9--9-|-9---9--9--9--------|-4-4-4-4-4-4----------|-5-5-5-5-5-5-5----------|
A:|-----------------|-----------------|-----------------|-----------------|
E:|-----------------|-----------------|-----------------|-----------------|

Interlude (Continued)
G:|--7-s-9---9-s-7----|--7-7-7-7-7-7-7-7-----7-7-7-7-7-7-7-7--------------------------|
D:|--5-s-7---9-s-7----|- 7-7-7-7-7-7-7-7-----5-5-5-5-5-5-5-5--------------------------|
A:|----------------------|-----------------|-----------------|-----------------|
E:|----------------------|-----------------|-----------------|-----------------|
| Do this ´´slide´´ |
| part the first time
| only |


´´s´´ means silde.

Song Order:

Intro: x4
Verse: x4
Chorus: x4
Verse: x6
Chorus: x4
Interlude: x8
Interlude (Continued):x4
Verse: x2
Chorus: x4
end with A string on 3rd fret

Taken from The BassMasta -- http://www.tabs-database.com



Get this song at amazon.com      Ebay     Ringtones Ringtones  


Learn to play: Songwriting, Piano, Harmonica, Guitar
Also available at Muzikum: Blink 182 - Wrecked Him lyrics

Related Blink 182 Bass Tabs

Dammit bass
Romeo & Rebecca bass
Take Off Your Pants And Jacket - Bass Tab bass
Cacophony bass
All The Small Things bass
The Party Song bass
Wirecked Him bass
G O bass
Instrumental bass
Mothers Day bass
Mutt bass
Feels So Good bass
Ben Wah Balls bass
American Pie Theme Song bass
Adam's Song Real Ver bass
The Whole 'blink 182' Album bass
The anthem pt2 bass
Up All Night bass
Heres Your Letter bass
Kaleidoscope bass


Guitar Tabs









All tabs are property and copyright of their owners. All tabs provided for educational purposes only. Privacy Policy, DMCA