Blink 182

Whats My Age Again Bass Tabs



More from Blink 182

Blink 182 Tabs
Blink 182 Chords
Blink 182 Bass
Blink 182 Lyrics

From: "Drew Strobel" 
Subject: b/blink_182/whats_my_age_again.btab
Date: Sat, 03 Nov 2001 02:45:36 -0500

Artist: Blink 182
Song: What's My Age Again
Album: Enema of the State
Written By: Mark Hoppus/Tom DeLonge
Type: Bass Tab

tabbed by Drew Strobel (strobel9@hotmail.com)

it's really late on a sat. night and i'm bored.  i was looking through the 
tabs and i couldn't believe there wasn't a bass tab for what's my age again 
so here i am doing it because my band always plays this and i play bass so i 
know the whole song by heart so here it is.

also, there are other blink albums out there so if this is the only one you 
have go by another one!


Intro (come in after guitar has played its intro twice)
G|-----------------------------------------|
D|-----------------------------------------|
A|--2-2-2-2-------------4-4-4-4---6-6-6-6--| x6
E|------------4-4-4-4----------------------|

G|-----------------------------------------------------------|
D|-----------------------------------------------------------|
A|--2-2-2-2-------------4-4-4-4---6-6-6-6-6-6---4-4-4-4-4-4--|
E|------------4-4-4-4----------------------------------------|


Chorus
G|-----------------------|
D|-----------------------|
A|------4-4---6-6---2-2--| x3
E|--2--------------------|

G|-------------------------------------------------|
D|-------------------------------------------------|
A|------4-4---6-6-6-6-6-6-6-6---4-4-4-4-4-4-4---2--|
E|--2----------------------------------------------|

(guitar will play intro once really fast)

Verse
G|-----------------------------------------|
D|-----------------------------------------|
A|--2-2-2-2-------------4-4-4-4---6-6-6-6--| x3
E|------------4-4-4-4----------------------|

G|-----------------------------------------------------------|
D|-----------------------------------------------------------|
A|--2-2-2-2-------------4-4-4-4---6-6-6-6-6-6---4-4-4-4-4-4--|
E|------------4-4-4-4----------------------------------------|


Chorus
G|-----------------------|
D|-----------------------|
A|------4-4---6-6---2-2--| x3
E|--2--------------------|

G|-------------------------------------------------|
D|-------------------------------------------------|
A|------4-4---6-6-6-6-6-6-6-6---4-4-4-4-4-4-4---2--|
E|--2----------------------------------------------|


Bridge (i think this is what mark is playing but it sounds good anyway)
G|-----------------|
D|-----------------|
A|--4---6---4---2--| x6 (guitar plays first measure of bridge alone)
E|-----------------|


Chorus
G|-----------------------|
D|-----------------------|
A|------4-4---6-6---2-2--| x3
E|--2--------------------|

G|-------------------------------------------------|
D|-------------------------------------------------|
A|------4-4---6-6-6-6-6-6-6-6---4-4-4-4-4-4-4---2--|
E|--2----------------------------------------------|

G|-----------------------|
D|-----------------------|
A|------4-4---6-6---2-2--| x3
E|--2--------------------|

G|-------------------------------------------------|
D|-------------------------------------------------|
A|------4-4---6-6-6-6-6-6-6-6---4-4-4-4-4-4-4---2--|
E|--2----------------------------------------------|

G|-----------------------|
D|-----------------------|
A|------4-4---6-6---2-2--| x3
E|--2--------------------|

G|-------------------------------------------------|
D|-------------------------------------------------|
A|------4-4---6-6-6-6-6-6-6-6---4-4-4-4-4-4-4---2--|
E|--2----------------------------------------------|
Get this song at amazon.com      Ebay     Ringtones Ringtones  


Learn to play: Songwriting, Piano, Harmonica, Guitar
Also available at Muzikum: Blink 182 - What's My Age Again lyrics

Related Blink 182 Bass Tabs

Dont Tell Me Its Over bass
Obvious bass
Mark Tom And Travis Show bass
Carousel Budha bass
Enthused bass
Dysentery Gary bass
Longest Line bass
Carousel Live bass
Action bass
Blowjob Song bass
Mutt bass
Peggy Sue Live bass
Rich Lips bass
Time bass
Anthem part 21 bass
Instrumental bass
Enema bass
Dysentery Gary (the Correct Bridge) bass
Tv bass
Untitled bass


Guitar Tabs









All tabs are property and copyright of their owners. All tabs provided for educational purposes only. Privacy Policy, DMCA