Blink 182

Whats My Age Again Live Tabs



More from Blink 182

Blink 182 Tabs
Blink 182 Chords
Blink 182 Bass
Blink 182 Lyrics



Artist: Blink 182
Song: Whats my age again (live and correct)
album: enama of the states and greatest hits
Guitarist:Tom Delonge
Tabber: punx_rock05


------------------------------------------------------------
---------13-------------13-------------13-------------13----
-----13-----13------13-----13------13-----13------13-----13-x8
-11---------------------------------------------------------
----------------11------------------------------------------
-------------------------------11-------------13------------


------------------------
------------------------
----8-8--10-10--6-6-6-6-x3
-6--8-8--10-10--6-6-6-6-
-6--6-6--8--8---4-4-4-4-
-4----------------------


--------------------------------------------------
--------------------------------------------------
----8-8--10-10-10-10-10-10-10-10--8-8-8-8-8-8-8-8-x1
-6--8-8--10-10-10-10-10-10-10-10--8-8-8-8-8-8-8-8-
-6--6-8--8--8--8--8--8--8--8--8---6-6-6-6-6-6-6-6-
-4------------------------------------------------


------------------------------------------------------------
---------13-------------13-------------13-------------13----
-----13-----13------13-----13------13-----13------13-----13-x1
-11---------------------------------------------------------
----------------11------------------------------------------
-------------------------------11-------------13------------


(Palm Mute)
----------------------------------------
----------------------------------------
-6-6-6-6-----------8-8-8-6--10-10-10-10-x3
-6-6-6-6--6-6-6-6--8-8-8-6--10-10-10-10-
-4-4-4-4--6-6-6-6--6-6-6-6--8--8--8--8--
----------4-4-4-4-----------------------


(Palm Mute)
------------------------------------------------------------
------------------------------------------------------------
-6-6-6-6-----------8-8-8-8-8-8-8-8--10-10-10-10-10-10-10-10-x1
-6-6-6-6--6-6-6-6--8-8-8-8-8-8-8-8--10-10-10-10-10-10-10-10-
-4-4-4-4--6-6-6-6--6-6-6-6-6-6-6-6--8--8--8--8--8--8--8--8--
----------4-4-4-4-------------------------------------------



------------------------
------------------------
----8-8--10-10--6-6-6-6-x3
-6--8-8--10-10--6-6-6-6-
-6--6-6--8--8---4-4-4-4-
-4----------------------


--------------------------------------------------
--------------------------------------------------
----8-8--10-10-10-10-10-10-10-10--8-8-8-8-8-8-8-8-x1
-6--8-8--10-10-10-10-10-10-10-10--8-8-8-8-8-8-8-8-
-6--6-8--8--8--8--8--8--8--8--8---6-6-6-6-6-6-6-6-
-4------------------------------------------------


-------------------------
----13-----13------------
--------13-----13--------x2
-11---------------11--11-
-------------------------
-------------------------


-----------------------------------------
-----------------------------------------
-----------------------------------------x2
-----------10h11------------10h11h10-----
-11-11-11--------11-11-11-------------11-
-----------------------------------------


------------------------------------
------------------------------------
---------------------------------13-x1
------10-----------10---------------
-11---------11-----------11---------
------------------------------------


---------------------------------------
---------------------------------------
------------------------------------13-x6
---------10-----------10---------------
-11-11---------11-----------11---------
---------------------------------------


------------------------
------------------------
----8-8--10-10--6-6-6-6-x3
-6--8-8--10-10--6-6-6-6-
-6--6-6--8--8---4-4-4-4-
-4----------------------


--------------------------------------------------
--------------------------------------------------
----8-8--10-10-10-10-10-10-10-10--8-8-8-8-8-8-8-8-x1
-6--8-8--10-10-10-10-10-10-10-10--8-8-8-8-8-8-8-8-
-6--6-8--8--8--8--8--8--8--8--8---6-6-6-6-6-6-6-6-
-4------------------------------------------------


------------------------
------------------------
----8-8--10-10--6-6-6-6-x3
-6--8-8--10-10--6-6-6-6-
-6--6-6--8--8---4-4-4-4-
-4----------------------


--------------------------------------------------
--------------------------------------------------
----8-8--10-10-10-10-10-10-10-10--8-8-8-8-8-8-8-8-x1
-6--8-8--10-10-10-10-10-10-10-10--8-8-8-8-8-8-8-8-
-6--6-8--8--8--8--8--8--8--8--8---6-6-6-6-6-6-6-6-
-4------------------------------------------------


------------------------
------------------------
----8-8--10-10--6-6-6-6-x3
-6--8-8--10-10--6-6-6-6-
-6--6-6--8--8---4-4-4-4-
-4----------------------


--------------------------------------------------
--------------------------------------------------
----8-8--10-10-10-10-10-10-10-10--8-8-8-8-8-8-8-8-x1
-6--8-8--10-10-10-10-10-10-10-10--8-8-8-8-8-8-8-8-
-6--6-8--8--8--8--8--8--8--8--8---6-6-6-6-6-6-6-6-
-4------------------------------------------------


---------
---------
-6~~-----x1
-6~~-6~~-
-4~~-6~~-
-----4~~-


Im pretty sure this is 100%
but any mistake u notice email me on punx_rock05@hotmail.co.uk
cheers



Get this song at amazon.com      Ebay     Ringtones Ringtones  


Learn to play: Songwriting, Piano, Harmonica, Guitar
Also available at Muzikum: Blink 182 - Whats My Age Again Live lyrics

Related Blink 182 Tabs

Alians Exist tabs
Point Of View tabs
Romeo And Rebecca tabs
Angellica & Me tabs
Red Skies tabs
Action Live tabs
Lucky tabs
Does My Breath Smell tabs
Degenerate tabs
Sumo Song tabs
Chesire Cat Full Album - Guitar Tab tabs
All New Songs tabs
Apple Shampoo tabs
Don't Leave Me (live) tabs
Cereal tabs
Peggy Sue Live Solo tabs
Emo tabs
Girl At The Rock Show tabs
Transvestite tabs
Wendy Clear tabs


Guitar Tabs









All tabs are property and copyright of their owners. All tabs provided for educational purposes only. Privacy Policy, DMCA

Online converter - videoconverter.com