Blink 182

What\'s My Age Again Tabs



More from Blink 182

Blink 182 Tabs
Blink 182 Chords
Blink 182 Bass
Blink 182 Lyrics

Artist: Blink 182

Title: What’s My Age Again?

Album: Enema of the State



I want to thank my friend peterson10 I couldn’t finish this tab without him.



I saw them play live and I am pretty sure the intro is like this, trust me.



Intro - clean

E --------------------------------

B ----13------13------13------13--

G –-13—-13—-13—-13—-13—-13—-13—-13

D 11------------------------------ x9

A --------11----------------------

E ----------------11------13------



Then hold on here

E ------------

B –-—-13------

G –-13—-13----

D ------------

A ------------

E 11----------



Chorus-distortion

E -----------------

B -----------------

G –-6-6-8-8-4-4-4-4

D 4-6-6-8-8-4-4-4-4 x4

A 4-4-4-6-6-2-2-2-2

E 2----------------



In the fourth time hold here when mark says what’s my age again?

E -------------------

B -------------------

G 8-8-8-8-8-6-6-6-6-6

D 8-8-8-8-8-6-6-6-6-6

A 6-6-6-6-6-4-4-4-4-4

E -------------------



Play the intro again one time

E --------------------------------

B ----13------13------13------13--

G –-13—-13—-13—-13—-13—-13—-13—-13

D 11------------------------------

A --------11----------------------

E ----------------11------13------



Verse-palm mute

E -----------------------

B -----------------------

G –-----6-6-6-8-8-8-4-4-4

D 4-4-4-6-6-6-8-8-8-4-4-4 x4

A 4-4-4-4-4-4-6-6-6-2-2-2

E 2-2-2------------------



In the fourth time hold here

E -------------------

B -------------------

G 8-8-8-8-8-6-6-6-6-6

D 8-8-8-8-8-6-6-6-6-6

A 6-6-6-6-6-4-4-4-4-4

E -------------------



Chorus-distortion

E -----------------

B -----------------

G –-6-6-8-8-4-4-4-4

D 4-6-6-8-8-4-4-4-4 x4

A 4-4-4-6-6-2-2-2-2

E 2----------------



In the fourth time hold here when mark says what’s my age again?

E -------------------

B -------------------

G 8-8-8-8-8-6-6-6-6-6

D 8-8-8-8-8-6-6-6-6-6

A 6-6-6-6-6-4-4-4-4-4

E -------------------



Interlude-clean

E --------------------

B –-13—-13—---13—-13--

G 10—-13--13—-—-13--13

D ----------11--------

A --------------------

E --------------------



E -------------

B -------------

G -------------

D –-------10h11 x4

A 11-11-11-----

E -------------



E ------------

B ------------

G ------13----

D –-10------10 x8

A 11—-11—-11—-

E ------------



Chorus-distortion

E -----------------

B -----------------

G –-6-6-8-8-4-4-4-4

D 4-6-6-8-8-4-4-4-4 x4

A 4-4-4-6-6-2-2-2-2

E 2----------------



In the fourth time hold here when mark says what’s my age again?

E -------------------

B -------------------

G 8-8-8-8-8-6-6-6-6-6

D 8-8-8-8-8-6-6-6-6-6

A 6-6-6-6-6-4-4-4-4-4

E -------------------

Get this song at amazon.com      Ebay     Ringtones Ringtones  


Learn to play: Songwriting, Piano, Harmonica, Guitar
Also available at Muzikum: Blink 182 - What's My Age Again lyrics

Related Blink 182 Tabs

Dont Leave Me (acoustic) tabs
Dancing With Myself Intro tabs
Aliens Exist tabs
Im Kicking tabs
Baby One More Time tabs
Stockholm Syndrome tabs
I'm Sorry tabs
Dammit (live) tabs
Wrecked Him tabs
Touchdown Boy tabs
Im Sorry tabs
21 Days2 tabs
Dude Ranch Album tabs
Adams Song Intro 3 tabs
Dude Ranch (whole Album) tabs
Degenerate tabs
Cacaphony tabs
Violence tabs
Shut Up Intro tabs
Palmadillo tabs


Guitar Tabs









All tabs are property and copyright of their owners. All tabs provided for educational purposes only. Privacy Policy, DMCA