Blink 182

What\'s My Age Again (live) Tabs



More from Blink 182

Blink 182 Tabs
Blink 182 Chords
Blink 182 Bass
Blink 182 Lyrics

Artist: Blink-182

Song: What’s My Age Again (Live)

Album: The Mark, Tom, and Travis Show (The Enema Strikes Back)

Tabber: Sean McCormick





Intro/Verse

|-----------------------------------------------|

|------13----------13---------13---------13-----|

|---13----13----13----13---13----13---13----13--|

|-11--------------------------------------------|

|-------------11--------------------------------|

|------------------------11---------13----------|





CHORUS

|-------------------|

|-------------------|

|----88--1010--6666-|

|-6--88--1010--6666-|

|-6--66--8-8---4444-|

|-4-----------------|



CHORUS CONTINUED

|-----------------------------------|

|-----------------------------------|

|----88--1010101010101010-888888888-|

|-6--88--1010101010101010-888888888-|

|-6--66--8-8-8-8-8-8-8-8--666666666-|

|-4---------------------------------|



MUTED RIFF

|--------------------------|

|--------------------------|

|-6666------8888-10101010--|

|-6666-8888-8888-10101010--|

|-4444-8888-6666-8-8-8-8---|

|------6666----------------|



SOLO RIFF #1

|----------------------------------|

|---13-----13---------13-----13----|

|------13-----13---------13-----13-|

|------------------11--------------|

|----------------------------------|

|----------------------------------|



SOLO RIFF #2

|---------------|

|---------------|

|---------------|

|---------10/11-|

|-11-11-11------|

|---------------|



SOLO RIFF #3

|--------------------|

|--------------------|

|--------13----------|

|---10------------10-|

|-11---11---11-11----|

|--------------------|

Get this song at amazon.com      Ebay     Ringtones Ringtones  


Learn to play: Songwriting, Piano, Harmonica, Guitar
Also available at Muzikum: Blink 182 - Whats My Age Again Live lyrics

Related Blink 182 Tabs

First Date tabs
It's Obvious tabs
Take Off Your Pants And Jacket tabs
Stay Together For The Kids tabs
Point Of View tabs
Down (live) tabs
Boring tabs
Zulu tabs
21 Days3 tabs
Dude Ranch tabs
Just About Done tabs
Dicklips tabs
Time To Wake Up tabs
Rich Lips tabs
Adams Song Live3 tabs
First Date (live) Guitar Tab tabs
Action Live tabs
Girl At The Rock Show tabs
Every Time I Look For You tabs
I Miss You tabs


Guitar Tabs









All tabs are property and copyright of their owners. All tabs provided for educational purposes only. Privacy Policy, DMCA