Blink 182

What Went Wrong Tabs



More from Blink 182

Blink 182 Tabs
Blink 182 Chords
Blink 182 Bass
Blink 182 Lyrics

Blink 182  What Went Wrong

Intro (Clean Guitar)
E|-----------------------------------------------------------
B|----------------------------------------------------------- X6
G|-----------------------------------------------------------
D|-----------9------7-------------------9------7-------------
A|----7--------------------------7---------------------------
E|-----------------------------------------------------------

A the intro continues a second guitar starts playing
RIFF 1
E|------------------------------------------------------------
B|------------------------------------------------------------
G|---------------------------------------------7-7-7-7-7-7-7--
D|-7-7-7-7-7-7-7-7-7-7-7-7-7-7--4-4-4-4-4-4-4--7-7-7-7-7-7-7-- X4
A|-7-7-7-7-7-7-7-7-7-7-7-7-7-7--4-4-4-4-4-4-4--5-5-5-5-5-5-5--
E|-5-5-5-5-5-5-5-5-5-5-5-5-5-5--2-2-2-2-2-2-2-----------------

VERSE 1:
A F#
I'm sick of always hearing
E D
All the sad songs on the radio
A F# E
All day it is there to remind an over sensitive guy
D
That he's lost and alone, yeah

INTRO

VERSE 2 :
A F# E D
I hate our favorite restaurant, favorite movie, our favorite show
A F#
We would stay up all through the night
E D
We would laugh and get high
A F#
And never answer the phone

A G#
I can't forgive
E
Can't forget
A G#
Can't give in what went wrong
E A
Cause you said this was right
E A
You fucked up my life


INTRO

VERSE 3 :
A F#
I'm sick of always hearing
E D
Sappy love songs on the radio
A F#
This place is fucking cursed in its plague
E D A
And I can never escape when my heart it explodes

A G#
I can't forgive
E
Can't forget
A G#
Can't give in what went wrong
E A
Cause you said this was right
E A
You fucked up my life

SOLO
E|---------------------------------------------------------------------
B|---------------------------------------------------------------------
G|-------9-----------6-----------9-----------6-----------9----------6--
D|----7-----7---7-----7-----7-----7-----7-----7-----7-----7----7---7---
A|-0-----------0----------0------------0-----------7------------7-----7
E|---------------------------------------------------------------------

-----------------------------------------------------------------------
-----------------------------------------------------------------------
-------9-----------6-----------9-----------6-----------9-----------6---
----7-----7-----7-----7---7-----7-----7-----7----7-----7-----7-----7---
-7-----------7-----------0-----------0---------------------------------
----------------------------------------------------7-----------7------

-----------------------------------------------------------------------
-----------------------------------------------------------------------
-------6--------6----------- 6-6-6-6-6-6-6-6-6-6-6-6-6-6---------------
----7--------7--------7--7--7-7-7-7-7-7-7-7-7-7-7-7-7-7----------------
-5--------5--------5-------- 5-5-5-5-5-5-5-5-5-5-5-5-5-5---------------
-----------------------------------------------------------------------

RIFF 1
I'm kicking out fiercely of the world around me
What went wrong [x4]

I'm kicking

plain and raw very cool
if anybody have the song intheir demo called life is boring .email
me at lofu_182@hotmail.com thanx
Get this song at amazon.com      Ebay     Ringtones Ringtones  


Learn to play: Songwriting, Piano, Harmonica, Guitar
Also available at Muzikum: Blink 182 - What Went Wrong? lyrics

Related Blink 182 Tabs

First Day tabs
Rollercoaster tabs
Peggy Sue Live tabs
Rich Lips Live Intro tabs
Dammit(done Right) tabs
What Went Wrong tabs
Cheshire Cat Album tabs
Anthem Intro tabs
Dammit (intro) tabs
When You F*cked Grandpa (easy For Beinners) tabs
Chesire Cat tabs
Happy Holidays You Bastards tabs
Wendy Clear tabs
Girl At The Rock Show tabs
Pathetic tabs
Blow Job tabs
Go tabs
Roller Coaster tabs
Just About Done tabs
Stockholm Syndrome tabs


Guitar Tabs









All tabs are property and copyright of their owners. All tabs provided for educational purposes only. Privacy Policy, DMCA