Blink 182

What Went Wrong (tabbed For Bass) Bass Tabs



More from Blink 182

Blink 182 Tabs
Blink 182 Chords
Blink 182 Bass
Blink 182 Lyrics




Artist: Blink 182
Song: What went wrong tabbed for bass
Album: Take off your pants and jacket
Tabber: punx_rock05


intro
-----16~-14~--
-14~----------x2
--------------
--------------

---------------------------14141414--
-1414141414141414-11111111-12121212--x2
-1212121212121212-9-9-9-9------------
-------------------------------------

verse 1
----------------------------------1616161616161616-1414141414141414--
-1414141414141414-111111111111111-1414141414141414-1212121212121212--x2
-1212121212121212-9-9-9-9-9-9-9-9------------------------------------
---------------------------------------------------------------------


---------------------------14141414--
-1414141414141414-11111111-12121212--x2
-1212121212121212-9-9-9-9------------
-------------------------------------

verse 2
----------------------------------1616161616161616-1414141414141414--
-1414141414141414-111111111111111-1414141414141414-1212121212121212--x2
-1212121212121212-9-9-9-9-9-9-9-9------------------------------------
---------------------------------------------------------------------

chorus
---------------------------------------------------1616161616161616--
-1414141414141414-1414141414141414-111111111111111-1414141414141414--x2
-1212121212121212-1111111111111111-9-9-9-9-9-9-9-9-------------------
---------------------------------------------------------------------


---------------------------14141414--
-1414141414141414-11111111-12121212--x2
-1212121212121212-9-9-9-9------------
-------------------------------------

verse 2
----------------------------------1616161616161616-1414141414141414--
-1414141414141414-111111111111111-1414141414141414-1212121212121212--x2
-1212121212121212-9-9-9-9-9-9-9-9------------------------------------
---------------------------------------------------------------------

chorus
---------------------------------------------------1616161616161616--
-1414141414141414-1414141414141414-111111111111111-1414141414141414--x2
-1212121212121212-1111111111111111-9-9-9-9-9-9-9-9-------------------
---------------------------------------------------------------------

solo
------21---------18---------21---------18---------21---------18---------21---------18----
---19----19---19----19---19----19---19----19---19----19---19----19---19----19---19----19-x1
--------------------------------------------17---------17---------17---------17----------
-17--------17---------17---------17------------------------------------------------------

------21---------18---------21---------18----------18-------18------18-18-18-18-18--
---19----19---19----19---19----19---19----19----19-------19------19----19-19-19-19--x1
---------------------------------------------17------17-------17-------17-17-17-17--
-17--------17---------19---------19-------------------------------------------------

interlude
-----------------1414141414141414-----------------------------------
-111111111111111-1212121212121212-14141414141414141414141414141414--x2
-9-9-9-9-9-9-9-9------------------12121212121212121212121212121212--
--------------------------------------------------------------------

-1616161616161616-1414141414141414--
-1414141414141414-1212121212121212--x1
------------------------------------
------------------------------------

outro

---------------------------14141414--
-1414141414141414-11111111-12121212--x4
-1212121212121212-9-9-9-9------------
-------------------------------------

this is a good song for the acoustic so i thought id do i6t for the bass an im
sure that its in key,
have fun



Get this song at amazon.com      Ebay     Ringtones Ringtones  


Learn to play: Songwriting, Piano, Harmonica, Guitar
More Blink 182 lyrics available at Muzikum

Related Blink 182 Bass Tabs

Rich Lips bass
Not Now bass
Here\'s Your Letter bass
The Longest Line bass
Untitled bass
Satans Theme bass
Longest Line bass
Daze Gone By bass
Another Girl Another Planet bass
Up All Night bass
M+ms bass
Strings bass
Always Intro/ Main Riff bass
Take Off Your Pants And Jacket (album) bass
Reckless Abandon bass
Romeo And Rebecca bass
Dumpweed live bass
Going Away To College bass
Ben Wah Balls bass
13 Miles bass


Guitar Tabs









All tabs are property and copyright of their owners. All tabs provided for educational purposes only. Privacy Policy, DMCA