Blink 182

What Went Wrong Acoustic Tabs



More from Blink 182

Blink 182 Tabs
Blink 182 Chords
Blink 182 Bass
Blink 182 Lyrics



What Went Wrong(Acoustic)
Album:Take of your pants and Jacket(yellow version)
Submited my MiN-E of Not all there
Standard Tuning
Listen for timing
IntroX4(first guitar)
e------------------------------------------
B------------------------------------------
G------------------------------------------
D------------------------------------------
A---9-7------------------------------------
E-7----------------------------------------

Second Guitar comes in after Intro is played twice
X2
e------------------------------------------
B------------------------------------------
G-(Fast Struming)-------7777---------------
D-77777777777777--4444--7777---------------
A-77777777777777--4444--5555---------------
E-55555555555555--2222---------------------

Verse(listen for strumming patterns)
e------------------------------------------
B------------------------------------------
G-------------------------777777-----------
D-777777--444444--999999--777777-----------
A-777777--444444--999999--555555-----------
E-555555--222222--777777-------------------
1 2 3 4

Im sick of always hearing all those Sad songs
1 2 3
on the ra_dio
4
All day they are there to remind some over sensitive guy
1 2 3
that hes lost and alone yeah
4
Intro
Guitar 1 and 2 x2

Verse2
I hate our favorite restaurant,
1 2
our favorite movie, our favorite show
3 4
we would stay up all through the night
1 2
we would laugh and get high, and never answer the phone
3 4
Chorus
e------------------------------
B------------------------------
G-------------------------777777-----
D-777777-4777777--444444--777777-----
A-777777-4777777--444444--555555-----
E-555555-4777777--222222-------------
1 2 3 4

I can't forgive, can't forget
1 2 3
can't give in, what went wrong?
4 1
cause you said this was right
2 3
you fucked up my life
4

Intro both guitarsx2

Verse 3
I'm sick of always hearing
1 2
sappy love songs on the radio
3 4
this place, it's fucking cursed and it's plagued
1 2
and I can never escape when my heart it explodes
3 4

Chorus

Bridge
E-----0------------------0-------------
B---------------2------------------2---
G---2---2----2----2----2---2----2----2-
D--------------------------------------
A--------------------------------------
E-2--------2---------2--------2--------


E-----0------------------0-------------
B---------------2------------------2---
G---2---2-----2---2----2---2-----2---2-
D-0---------0--------0---------0-------
A--------------------------------------
E--------------------------------------

E----0------------------0--------------
B---------------2------------------2---
G--2---2------2---2---2---2------2---2-
D--------------------------------------
A-0---------0--------2----------2------
E--------------------------------------

E-----------------------------------
B------2-----2----2------2--2222----
G---2-----2-----2-----2-----2222----
D-0-----0-----0-----0-------0000----
A------------------------------------
E-----------------------------------
(with Clarinet)
E------------------------------------|----------------------
B------------------------------------|----------------------
G-------------7-7-7-7----------------|--9-9-9-9---7-7-7-7---
D--4-4-4-4----7-7-7-7--7-7-7-7-------|--9-9-9-9---7-7-7-7---
A--4-4-4-4----5-5-5-5--7-7-7-7---X2--|--7-7-7-7---5-5-5-5---
E--2-2-2-2-------------5-5-5-5-------|----------------------

Outro(same as intro)
-----------------------------------------
-----------------------------------------
-------------------------777777----------
--777777777777---222222--777777----------
--777777777777---222222--555555----------
--555555555555---444444------------------
1 2 3
I'm kicking out fiercely at the word around me
1 2 3
what went wrong?
1
I'm kicking out fiercely at the word around me
2 3
what went wrong?
1
1 2 3
I'm kicking out fiercely at the word around me
1 2 3
what went wrong?
1
I'm kicking out fiercely at the word around me
2 3
what went wrong?

Im kicking
(let 1 ring out)

----------------------------------------------------


Get this song at amazon.com      Ebay     Ringtones Ringtones  


Learn to play: Songwriting, Piano, Harmonica, Guitar
More Blink 182 lyrics available at Muzikum

Related Blink 182 Tabs

Point Of View (Live) tabs
Adoms Song tabs
Anthem Intro tabs
Reebok Commercial tabs
Dammit(done Right) tabs
Rock Show tabs
Untitled Live tabs
Im Sorry tabs
Carousel tabs
Happy Holidays You Bastard tabs
Cheshire Cat Album tabs
Whats My Age Again Perfect tabs
Mark Tom And Travis Show tabs
The Enema Strikes Back tabs
Man Overboard (intro) tabs
A New Hope Intro tabs
21 Days2 tabs
Enema Of The State tabs
First Day tabs
Don\'t Leave Me tabs


Guitar Tabs









All tabs are property and copyright of their owners. All tabs provided for educational purposes only. Privacy Policy, DMCA