Blink 182

What Went Wrong 100% Tabs



More from Blink 182

Blink 182 Tabs
Blink 182 Chords
Blink 182 Bass
Blink 182 Lyrics




Artist: Blink 182
Title: What Went Wrong
Album: take off your pants and jacket
guitarist: Tom Delonge
Tabber: punx_rock05

all the tabs ive seen for this song i think are wrong
so i though id have a go and im sure its 100%

has a capo on the second fret

intro

|-------------|
|-------------|
|-------------|x2
|-----9~--7~--|
|--7~---------|
|-------------|

main riff
guitar 1+2
|----------------------|
|----------------------|
|----------------------|
|-----9~-7~----9~-7~---|
|--7~-------7~---------|
|----------------------|
| |x2
|----------------------|
|----------------------|
|----------------7777--|
|--77777777-7777-7777--|
|--77777777-4444-5555--|
|--55555555-0000-------|


verse 1
|---------------------------------------|
|---------------------------------------|
|--------------------99999999-77777777--|x2
|--77777777-44444444-99999999-77777777--|
|--77777777-44444444-77777777-55555555--|
|--55555555-00000000--------------------|


main riff
guitar 1+2
|----------------------|
|----------------------|
|----------------------|
|-----9~-7~----9~-7~---|
|--7~-------7~---------|
|----------------------|
| |x2
|----------------------|
|----------------------|
|----------------7777--|
|--77777777-7777-7777--|
|--77777777-4444-5555--|
|--55555555-0000-------|


verse 2
|---------------------------------------|
|---------------------------------------|
|--------------------99999999-77777777--|x2
|--77777777-44444444-99999999-77777777--|
|--77777777-44444444-77777777-55555555--|
|--55555555-00000000--------------------|


chorus
|------------------------------------------|
|------------------------------------------|
|--------------------------------77777777--|x2
|--77777777--66666666--44444444--77777777--|
|--77777777--77777777--44444444--55555555--|
|--55555555--44444444--00000000------------|


main riff
guitar 1+2
|----------------------|
|----------------------|
|----------------------|
|-----9~-7~----9~-7~---|
|--7~-------7~---------|
|----------------------|
| |x2
|----------------------|
|----------------------|
|----------------7777--|
|--77777777-7777-7777--|
|--77777777-4444-5555--|
|--55555555-0000-------|


verse 2
|---------------------------------------|
|---------------------------------------|
|--------------------99999999-77777777--|x2
|--77777777-44444444-99999999-77777777--|
|--77777777-44444444-77777777-55555555--|
|--55555555-00000000--------------------|


chorus
|------------------------------------------|
|------------------------------------------|
|--------------------------------77777777--|x2
|--77777777--66666666--44444444--77777777--|
|--77777777--77777777--44444444--55555555--|
|--55555555--44444444--00000000------------|


solo
|-------------------------------------------------------------|
|-------------------------------------------------------------|
|---------9--------------6--------------9--------------6------|
|-----7-------7------7-------7------7-------7------7-------7--|
|-------------------------------------------------------------|
|--0-------------0--------------0---------------0-------------|

|-------------------------------------------------------------|
|-------------------------------------------------------------|
|---------9--------------6--------------9--------------6------|
|-----7-------7------7------7-------7------7-------7-------7--|
|--5-------------5--------------5---------------5-------------|
|-------------------------------------------------------------|

|-------------------------------------------------------------|
|-------------------------------------------------------------|
|---------9--------------6--------------9--------------6------|
|-----7-------7------7-------7------7-------7------7-------7--|
|-------------------------------------------------------------|
|--5-------------5--------------5---------------5-------------|

|------------------------------------------------------------------|
|------------------------------------------------------------------|
|---------9--------------6--------------9--------------6-----6666--|
|-----7-------7------7-------7------7-------7------7------7--7777--|
|-------------------------------0---------------0------------5555--|
|--5-------------5-------------------------------------------------|


outro
|--------------------------------------|
|--------------------------------------|
|-----------77777777-------------------|x2
|--44444444-77777777-7777777777777777--|
|--44444444-55555555-7777777777777777--|
|--00000000----------5555555555555555--|


|----------------------|
|----------------------|
|--99999999-77777777---|x1
|--99999999-77777777---|
|--77777777-55555555---|
|----------------------|


|----------------------|
|----------------------|
|----------------7777--|x4
|--77777777-7777-7777--|
|--77777777-4444-5555--|
|--55555555-0000-------|

guitar 1+2
|----------------------|
|----------------------|
|----------------------|
|-----9~-7~----9~-7~---|
|--7~-------7~---------|
|----------------------|
| |x4
|----------------------|
|----------------------|
|----------------7777--|
|--77777777-7777-7777--|
|--77777777-4444-5555--|
|--55555555-0000-------|



there u go every thing is there in order an correct
have fun



Get this song at amazon.com      Ebay     Ringtones Ringtones  


Learn to play: Songwriting, Piano, Harmonica, Guitar
More Blink 182 lyrics available at Muzikum

Related Blink 182 Tabs

Family Reunion tabs
Ben Wah Balls tabs
Chesire Cat tabs
Fentoozler tabs
Waggy tabs
The Country Song Solo tabs
Macca Is Gay tabs
Dont Leave Me (acoustic) tabs
Point Of View Solo tabs
Country Song tabs
Time To Break Up tabs
21 Days2 tabs
Feeling This tabs
Don't Tell Me That Its Over tabs
First Date (live) tabs
Mms tabs
Grandpa tabs
Online Songs tabs
Mutt Live tabs
Going Away To College (Live) tabs


Guitar Tabs









All tabs are property and copyright of their owners. All tabs provided for educational purposes only. Privacy Policy, DMCA