Blink 182

Wendy Clear Tabs



More from Blink 182

Blink 182 Tabs
Blink 182 Chords
Blink 182 Bass
Blink 182 Lyrics

This Song is tuned to Standard Tuning E A D G B E









Intro/Main Riff

------------------------------------------------------------------ x8

------------------------------------------------------------------

------------------------------------------------------------------

----------------5--------------------0--------------3------2------

-------------3--------------------3-------------------------------

------------------------------------------------------------------



Rhythm- Under Main Riff



---------------------------------------------------------------------- x1

----------------------------------------------------------------------

-5-5-5-5-5-5-5-5-5-5-5-5-5-5-5-5---5-5-5-5-5-5-5-5-5-5-5-5-5-5-5-5----

-5-5-5-5-5-5-5-5-5-5-5-5-5-5-5-5---5-5-5-5-5-5-5-5-5-5-5-5-5-5-5-5----

-3-3-3-3-3-3-3-3-3-3-3-3-3-3-3-3---3-3-3-3-3-3-3-3-3-3-3-3-3-3-3-3----

----------------------------------------------------------------------



----------------------------------------------------------------------

----------------------------------------------------------------------

----------------------------------------------------------------------

-3-3-3-3-3-3-3-3-3-3-3-3-3-3-3-3---3-3-3-3-3-3-3-3-3-3-3-3-3-3-3-3----

-3-3-3-3-3-3-3-3-3-3-3-3-3-3-3-3---3-3-3-3-3-3-3-3-3-3-3-3-3-3-3-3----

-1-1-1-1-1-1-1-1-1-1-1-1-1-1-1-1---1-1-1-1-1-1-1-1-1-1-1-1-1-1-1-1----



----------------------------------------------------------------------

----------------------------------------------------------------------

----------------------------------------------------------------------

-5-5-5-5-5-5-5-5-5-5-5-5-5-5-5-5---3-3-3-3-3-3-3-3-3-3-3-3-3-3-3-3----

-5-5-5-5-5-5-5-5-5-5-5-5-5-5-5-5---3-3-3-3-3-3-3-3-3-3-3-3-3-3-3-3----

-3-3-3-3-3-3-3-3-3-3-3-3-3-3-3-3---1-1-1-1-1-1-1-1-1-1-1-1-1-1-1-1----



Verse



----------------------------------------------------------------------

----------------------------------------------------------------------

-5-5-5-5-5-5-5-5-5-5-5-5-5-5-5-5--------------------------------------

-5-5-5-5-5-5-5-5-5-5-5-5-5-5-5-5---5---3-3-3-3-3-3-3-3-3-3-3-3-3-3-3-3

-3-3-3-3-3-3-3-3-3-3-3-3-3-3-3-3---5---3-3-3-3-3-3-3-3-3-3-3-3-3-3-3-3

-----------------------------------3---1-1-1-1-1-1-1-1-1-1-1-1-1-1-1-1



----------------------------------------------------------------------- x2

-----------------------------------------------------------------------

-----------------------------------------------------------------------

-7-7-7-7-7-7-7-7---5---------------------------------------------------

-7-7-7-7-7-7-7-7---5---------------------------------------------------

-5-5-5-5-5-5-5-5---3---------------------------------------------------



Chorus



----------------------------------------------------------------------- x2

-----------------------------------------------------------------------

---------------------5-5-5-5-5-5-5-5-5-5-5-5-5-5-5-5-------------------

-5-5-5-5---3-3-3-3---3-3-3-3-3-3-3-3-3-3-3-3-3-3-3-3-------------------

-5-5-5-5---3-3-3-3---3-3-3-3-3-3-3-3-3-3-3-3-3-3-3-3-------------------

-3-3-3-3---1-1-1-1-----------------------------------------------------



----------------------------------------------------------------------- x2

-----------------------------------------------------------------------

-----------------------5-5-5-5-----------------------------------------

-7-7-7-7---3-3-3-3-3---3-5-5-5---5-5-5-5-5-----------------------------

-7-7-7-7---3-3-3-3-3---3-3-3-3---3-3-3-3-3-----------------------------

-5-5-5-5---1-1-1-1-1-------------3-3-3-3-3-----------------------------





(...movin' on, movin' on...)



---------------------------------------------------------------- x2

----------------------------------------------------------------

---------------5-5----------------------------------------------

-5-5---3-3---3-3---5-5------------------------------------------

-3-3---3-3---3-3---3-3------------------------------------------

-3-3---1-1----------3-3-----------------------------------------



Outro



-----------------------------------------------------------------

-----------------------------------------------------------------

-------------------5---------------------------------------------

-5------7----5-----5---------------------------------------------

-5------7----5-----3---------------------------------------------

-3------5----3---------------------------------------------------





Order.



Intro/Main Riff + Rhythm

Verse

Chorus

Intro/Main Riff + Rhythm

Bass Verse

Chorus

(...movin' on, movin' on...)

Intro/Main Riff + Rhythm

Chorus

Outro

Get this song at amazon.com      Ebay     Ringtones Ringtones  


Learn to play: Songwriting, Piano, Harmonica, Guitar
Also available at Muzikum: Blink 182 - Wendy Clear lyrics

Related Blink 182 Tabs

Rollercoaster tabs
Rich Lips Live Intro tabs
Dysentery Gary Intro tabs
All The Small Thong tabs
Asthenia Guitar Tab tabs
What Went Wrong 100% tabs
Adams Song Live2 tabs
Chesire Cat tabs
Happy Holidays You Bastards tabs
B J tabs
Dude Ranch (whole Album) tabs
Online Songs Solo tabs
The Family Next Door tabs
Grandpa Intro tabs
Carousel Live tabs
Sex With Grandpa tabs
78 People tabs
Adams Song Live tabs
Mutt Live tabs
Anthem Part Two tabs


Guitar Tabs









All tabs are property and copyright of their owners. All tabs provided for educational purposes only. Privacy Policy, DMCA