Blink 182

Waggy Tabs



More from Blink 182

Blink 182 Tabs
Blink 182 Chords
Blink 182 Bass
Blink 182 Lyrics

Artist: Blink 182
Song: Waggy
Album: Dude Ranch
Guitarist: Tom Delonge
Tabbed by: Chris Hansen (threats, comments, if you wanna give me money, put a bomb in my back pack email me at blinkmeb4@hotmail.com)

Intro
E|---------------------------------------|
B|---------------------------------------|
G|---7-6---6-7-6---7-6---6-7-6-----------|
D|-7-------7-----7-------7---------------|
A|---------------------------------------|
E|---------------------------------------|

E|---------------------------------------|
B|---------------------------------------|
G|-666666666-9-7-6-7-9------7-9----------|
D|-xxxxxxxxx-x-x-x-x-x-7777-x-x-7777-----|
A|-444444444-7-5-4-5-7-xxxx-5-7-xxxx-----|
E|---------------------5555-----5555-----|

Verse
E|---------------------------------------|
B|---------------------------------------|
G|---7-6---6-7-6---7-6---6-7-6-----------|
D|-7-------7-----7-------7---------------|
A|---------------------------------------|
E|---------------------------------------|

Chorus
E|---------------------------------------|x2
B|---------------------------------------|
G|-2~------------------------------------|
D|-2~----------77777777------------------|
A|-0~-44444444-55555555------------------|
E|----22222222---------------------------|

E|---------------------------------------|x1
B|---------------------------------------|
G|---------------------------------------|
D|------7777-----------------------------|
A|-4444-5555-99999999--------------------|
E|-2222------77777777--------------------|

E|---------------------------------------|x1
B|---------------------------------------|
G|---------------------------------------|
D|------7777-----------------------------|
A|-4444-5555-77777777--------------------|
E|-2222------55555555--------------------|

E|---------------------------------------|x1
B|---------------------------------------|
G|---------------------------------------|
D|------7777-44444444--------------------|
A|-4444-5555-22222222--------------------|
E|-2222----------------------------------|

E|---------------------------------------|x1
B|---------------------------------------|
G|---------------------------------------|
D|------7777-----------------------------|
A|-4444-5555-----------------------------|
E|-2222----------------------------------|
(right after this go into 1st intro)

E|---------------------------------------|
B|---------------------------------------|
G|-666666666-9-7-6-7-9------7-9----------|
D|-xxxxxxxxx-x-x-x-x-x-7777-x-x-7777-----|
A|-444444444-7-5-4-5-7-xxxx-5-7-xxxx-----|
E|---------------------5555-----5555-----|

Verse
E|---------------------------------------|
B|---------------------------------------|
G|---7-6---6-7-6---7-6---6-7-6-----------|
D|-7-------7-----7-------7---------------|
A|---------------------------------------|
E|---------------------------------------|

Chorus
E|---------------------------------------|x2
B|---------------------------------------|
G|-2~------------------------------------|
D|-2~----------77777777------------------|
A|-0~-44444444-55555555------------------|
E|----22222222---------------------------|

E|---------------------------------------|x1
B|---------------------------------------|
G|---------------------------------------|
D|------7777-----------------------------|
A|-4444-5555-99999999--------------------|
E|-2222------77777777--------------------|

E|---------------------------------------|x1
B|---------------------------------------|
G|---------------------------------------|
D|------7777-----------------------------|
A|-4444-5555-77777777--------------------|
E|-2222------55555555--------------------|

E|---------------------------------------|x1
B|---------------------------------------|
G|---------------------------------------|
D|------7777-44444444--------------------|
A|-4444-5555-22222222--------------------|
E|-2222----------------------------------|

E|---------------------------------------|x1
B|---------------------------------------|
G|---------------------------------------|
D|------7777-4~--------------------------|
A|-4444-5555-2~--------------------------|
E|-2222----------------------------------|

Solo
E|-------------------------------------------|
B|-------------------------------------------|
G|-------------------------------------------|
D|-77-77-------------------------------------|
A|-77-77-0-4h0-5h0-4h0-5h0-4h0-5h0-4h0-5h0---|
E|-55-55-------------------------------------|

Outro
E|---------------------------------------|x2
B|---------------------------------------|
G|-666666666-9-7-6-7-9------7-9----------|
D|-xxxxxxxxx-x-x-x-x-x-7777-x-x-7777-----|
A|-444444444-7-5-4-5-7-xxxx-5-7-xxxx-----|
E|---------------------5555-----5555-----|

E|---------------------------------------|
B|---------------------------------------|
G|---7-6---6-7-6---7-6---6-7-6-----------|
D|-7-------7-----7-------7---------------|
A|---------------------------------------|
E|---------------------------------------|

End on
E|------|
B|------|
G|------|
D|--7~--|
A|--7~--|
E|--5~--|


BLINK 182 WAGGY LYRICS

Watching your house shrink away in my rear-view mirror
As I drive away
Wishing that I could take back all those words
That meant nothing that I didn't say


I'm trying
To be what you want me to be
But it's so damn hard to keep playing the part
Of the fool, week after week


I think you need some time alone
You say you want someone to call your own
Open your eyes, you can suck in your pride
You can live your life all on your own


Is this all going to be just another time
That we play this game?
I've tried to convince you that things could be different
But somehow they end up the same


But what
Did you expect from me? What am I supposed to do?
You say that you're starting to feel like you're getting lost
Well, I do, too


I don't wanna live this lie again
I know I'll get it right but I don't know when
I'll open my eyes, I've got something in side
I'll just jack off in my room until then


It's never over 'til it's done
And I don't think that you're the one
It's never over 'til it's done
And I don't think that you're the one


It's never over 'til it's done
And I don't think that you're the one
It's never over 'til it's done
And I don't think that you're the one
Get this song at amazon.com      Ebay     Ringtones Ringtones  


Learn to play: Songwriting, Piano, Harmonica, Guitar
Also available at Muzikum: Blink 182 - Waggy lyrics

Related Blink 182 Tabs

Asthenia tabs
Adams Song Complete tabs
First Date (live) tabs
Party Song tabs
Grampa Is An Asshole tabs
21 Days Intro tabs
Dude Ranch tabs
Transvestite tabs
Girl Next Door, The tabs
Adams Song Live4 tabs
Adams Song Intro2 tabs
When You Fucked Grandpa tabs
Pathetic Intro tabs
I Wont Be Home For Christmas Intro tabs
Dysentery Gary Acoustic tabs
Online Songs Solo tabs
Enema Of The State tabs
Dumpweed live tabs
Dicklips tabs
Time tabs


Guitar Tabs









All tabs are property and copyright of their owners. All tabs provided for educational purposes only. Privacy Policy, DMCA