Blink 182

Voyeur Tabs



More from Blink 182

Blink 182 Tabs
Blink 182 Chords
Blink 182 Bass
Blink 182 Lyrics

Blink-182 - Voyeur



.=Palm Mute



Intro:(x2)

e|-------------------------------

B|-------------------------------

G|-5-5555555555------------------

D|-5-5555555555-7-77777-3-33333--

A|-3-3333333333-7-77777-3-33333--

E|--------------5-55555-1-11111--

.......... ..... .....



Verse:

e|--------------------------------------------------------------------------------

B|--------------------------------------------------------------------------------

G|-5555555555--------------5555555555-------------------55555-22222---------------

D|-5555555555-77777-33333--5555555555-77777-3333333333--55555-22222-2222-3-2222---

A|-3333333333-77777-33333--3333333333-77777-3333333333--33333-00000-3333---3333---

E|------------55555-11111-------------55555-1111111111-------------------------3--

.... ....

e|---------------------------------------------------------------------------------------

B|---------------------------------------------------------------------------------------

G|-55555-------55555-------------------55555---------------------------------------------

D|-55555-55555-55555-3333333333--55555-55555-3333333333-55555-2222-3-2222--2222-3-2222---

A|-33333-55555-33333-3333333333--55555-33333-3333333333-55555-3333---3333--3333---3333---

E|-------33333-------1111111111--33333-------1111111111-33333------------3------------3--

.... .... .... ....



Then Play Intro(x2)

Then Verse(x1)



Chorus:

e|--------------------------

B|--------------------------

G|-55555--------------------

D|-55555-33333-55555-33333--(x3)

A|-33333-33333-55555-33333--

E|-------11111-33333-11111--



e|--------------------------------

B|--------------------------------

G|-55555--------------------------

D|-55555-33333-55555-33333-55555--

A|-33333-33333-55555-33333-55555--

E|-------11111-33333-11111-33333--



Then Play Intro(x2)

Then Verse(x1)

Then Chorus(x1)



Outro:

e|------------------

B|------------------

G|----55-------5----

D|-33-55-55-33-5-5--(x4)

A|-33-33-55-33-3-3--

E|-11----33-11---3--



e|-------------------------------

B|-------------------------------

G|----------------------------5--

D|-2222-3-2222--2222-3-2222---5--

A|-3333---3333--3333---3333---3--

E|------------3------------3-----

.... .... .... ....



Get this song at amazon.com      Ebay     Ringtones Ringtones  


Learn to play: Songwriting, Piano, Harmonica, Guitar
Also available at Muzikum: Blink 182 - Voyeur lyrics

Related Blink 182 Tabs

All Of This tabs
Rollercoaster tabs
Baby One More Time tabs
Adam\'s Song tabs
Voyeur tabs
Sex With His Sister tabs
Phantom Of The Opera tabs
Feeling This Live tabs
Happy Holidays You Bastard tabs
Not Now tabs
Everytime I Look For You tabs
F k A Dog tabs
Degenerate tabs
Dead Man's Curve tabs
Whats My Age Again Live tabs
The Album Tabs tabs
21 Days Intro tabs
Carousel Intro tabs
B J tabs
Girl Next Door, The tabs


Guitar Tabs









All tabs are property and copyright of their owners. All tabs provided for educational purposes only. Privacy Policy, DMCA