Blink 182

Voyer Bass Tabs



More from Blink 182

Blink 182 Tabs
Blink 182 Chords
Blink 182 Bass
Blink 182 Lyrics



Lemme know if there's somthing wrong with it.
~Nikki FM


intro(listen 4 timing)
|-----------------------------------
|-3-5-3-2---------------------------
|-----------------------------------
|-----------------------------------

verse 1
|-----------------------------------
|---------------3333----------------
|-33333333-0000---------------------x2
|-----------------------------------

pre chorus
|-----------------------3-----------
|-333-5-3-----------333---333-------
|---------3333-1111-----------3-----
|-----------------------------------

|-----------------------------------
|-----------------------------------
|----------------3333---------------x2
|-333333333-0000--------------------

|-----3-----------3-----------------
|-333---333---333---333-------------
|-----------3-----------3-----------
|-----------------------------------

verse 2
|-----------------------------------
|---------------3333----------------
|-33333333-0000---------------------x4
|-----------------------------------

pre chorus

chorus
|-----------------------------------
|------3333-5555-3333---------------
|-3333------------------------------x3
|-----------------------------------

|-----------------------------------
|------3333-5555-3333-555-3-0-------
|-3333------------------------------
|-----------------------------------

verse 3(same as verse 2)
pre chorus
chorus
solo
|-----------------------------------
|-----555-333-----------------------
|-333-------------------------------x8 (I might be wrong)
|-----------------------------------

|-----3-----------3-----------------
|-333---333---333---333---3---------
|-----------3-----------3-----------
|-----------------------------------



Get this song at amazon.com      Ebay     Ringtones Ringtones  


Learn to play: Songwriting, Piano, Harmonica, Guitar
More Blink 182 lyrics available at Muzikum

Related Blink 182 Bass Tabs

Fallen Interlude bass
Feeling This bass
The Girl Next Door bass
Stay Together 4 The Kids bass
Good Times bass
Family Reunion (clean:p) bass
Whats My Age Agian bass
Fuck A Dog bass
I Miss You (new Complete Version) bass
Enthused bass
Dammit Live (warped Tour) bass
Asthenia(perfect) bass
Violence bass
Every Time I Look For You bass
Natives bass
Waggy bass
MH 4.18.2011 bass
Action bass
Josie (with Lyrics) bass
Untitled bass


Guitar Tabs









All tabs are property and copyright of their owners. All tabs provided for educational purposes only. Privacy Policy, DMCA

Online converter - videoconverter.com