Blink 182

Violence (live) Tabs



More from Blink 182

Blink 182 Tabs
Blink 182 Chords
Blink 182 Bass
Blink 182 Lyrics



There are many ways to play this song but here is one of them and i think it is really good.

Tom uses a CAPO in this song, and it is placed on the second fret. it sounds good.

D=Down Stroke
i= THE ELEVENTH FRET
U=Up Stroke
LR=LET RING

Intro

E)-----------------------------------------------------
B)-----------------------------------------------------
G)-----------------------------------------------------
D)---9----9999----9----9999----9----99999---------------X6(or until travis hits the snare drum really fast)
A)---2----2222----2----2222----2----22222---------------
E)---7----7777----7----7777----7----77777---------------
D DUU D UDUD D DUUDU
CHOURS
E)-----------------------------------------------------
B)-----------------------------------------------------
G)-----------------------------------------------------
D)---999999999--iiiiiiiiii--6666666666--8888888888-----X2
A)---222222222--2222222222--2222222222--2222222222-----
E)---777777777--9999999999--4444444444--6666666666-----


CHOURS
E)-----------------------------------------------------
B)-----------------------------------------------------
G)-----------------------------------------------------
D)---999999999--iiiiiiiiii--6666666666--8888888888-----X2
A)---222222222--2222222222--2222222222--2222222222-----
E)---777777777--9999999999--4444444444--6666666666-----

CHOURS
E)-----------------------------------------------------
B)-----------------------------------------------------
G)-----------------------------------------------------
D)---999999999--iiiiiiiiii--6666666666--8888888888-----X2
A)---222222222--2222222222--2222222222--2222222222-----
E)---777777777--9999999999--4444444444--6666666666-----

Interlude: Clean Tone
E)--------------------------------------------------------------
B)--------------------------------------------------------------
G)--------------------------------------------------------------
D)-----4----4---4-----6----6---6-----8-----8---8-----6----6---6-x5
A)-2-2—-2-2---2---4-4--4-4—--4---6-6---6-6---6---4-4--4-4—--4---
E)--------------------------------------------------------------



E)------------------------------------
B)------------------------------------
G)------------------------------------
D)--9---------9----------9------------
A)--2-LR------2-LR-------2-LR---------
E)--7---------7----------7-----------

CHOURS
E)-----------------------------------------------------
B)-----------------------------------------------------
G)-----------------------------------------------------
D)---999999999--iiiiiiiiii--6666666666--8888888888-----X2
A)---222222222--2222222222--2222222222--2222222222-----
E)---777777777--9999999999--4444444444--6666666666-----

CHOURS
E)-----------------------------------------------------
B)-----------------------------------------------------
G)-----------------------------------------------------
D)---999999999--iiiiiiiiii--6666666666--8888888888-----X2
A)---222222222--2222222222--2222222222--2222222222-----
E)---777777777--9999999999--4444444444--6666666666-----

Intro

E)-----------------------------------------------------
B)-----------------------------------------------------
G)-----------------------------------------------------
D)---9----9999----9----9999----9----99999---------------(PLAY TIL THE END)
A)---2----2222----2----2222----2----22222---------------
E)---7----7777----7----7777----7----77777---------------
D DUU D UDUD D DUUDU


Get this song at amazon.com      Ebay     Ringtones Ringtones  


Learn to play: Songwriting, Piano, Harmonica, Guitar
More Blink 182 lyrics available at Muzikum

Related Blink 182 Tabs

I'm Gay tabs
Dysentery Gary Intro tabs
Rich Lips Live Intro tabs
Josie Live tabs
Anthem Part 2 tabs
Dancing With Myself Intro tabs
Roller Coaster tabs
Anthem Pt. 2 tabs
Cacaphony tabs
The Grandpa Song tabs
Blow Job tabs
Going Away To College (Live) tabs
Sometimes tabs
Peggy Sue Live tabs
Dick Lips tabs
Mutt Live tabs
Every Time I Look For You tabs
Dammit (live An Normal 100%) tabs
Violence (live) tabs
Emo tabs


Guitar Tabs









All tabs are property and copyright of their owners. All tabs provided for educational purposes only. Privacy Policy, DMCA