Blink 182

Violence Bass Tabs



More from Blink 182

Blink 182 Tabs
Blink 182 Chords
Blink 182 Bass
Blink 182 Lyrics




intro:

G|----------------------------------------------||
D|----------------------------------------------||
A|-2222222222-4444444444------------------------||
E|-----------------------4444444444-66666666666-||

intro:

G|----------------------------------------------||
D|----------------------------------------------||
A|-2222222222-4444444444------------------------||
E|-----------------------4444444444-66666666666-||


Verse 1: (Six bottles went down the drain. One hour's a...)

G|------------------------------------------||
D|------------------------------------------||
A|-2222222222-66666-1----2222222222-66666-1-||
E|------------------------------------------||

verse 1: (Your breath in this cool room chill. Long hair...)

G|------------------------------------------||
D|------------------------------------------||
A|-2222222222-66666-1----2222222222-66666-1-||
E|------------------------------------------||


Pre Chorus:

G|------||
D|------||
A|-2~~~-||
E|------||


Chorus: (Like violence, you have me. Forever, and after...)

G|---------------------------------------------------------------------||
D|---------------------------------------------------------------------||
A|-2222222222222222-4444444444444444-----------------------------------||
E|-----------------------------------4444444444444444-6666666666666666-||

chorus: (Like violence, you kill me. Forever, and after...)

G|---------------------------------------------------------------------||
D|---------------------------------------------------------------------||
A|-2222222222222222-4444444444444444-----------------------------------||
E|-----------------------------------4444444444444444-6666666666666666-||


Verse 2: (Can't count on the eyes that stare. Can't count on the...)

G|------------------------------------------||
D|------------------------------------------||
A|-2222222222-66666-1----2222222222-66666-1-||
E|------------------------------------------||


[One drink and the pain goes down. Soft shadows lay by...]
verse 2:

G|------------------------------------------||
D|------------------------------------------||
A|-2222222222-66666-1----2222222222-66666-1-||
E|------------------------------------------||


Pre Chorus: [Fall asleep...]

G|-------||
D|-------||
A|-2~~~~-||
E|-------||


[Like violence, you have me, forever, and after...]
Chorus: (Like violence, you have me, forever, and after...)

G|---------------------------------------------------------------------||
D|---------------------------------------------------------------------||
A|-2222222222222222-4444444444444444-----------------------------------||
E|-----------------------------------4444444444444444-6666666666666666-||

[Like violence, you kill me, forever, and after...]
chorus: (Like violence, you kill me, forever, and after...)

G|---------------------------------------------------------------------||
D|---------------------------------------------------------------------||
A|-2222222222222222-4444444444444444-----------------------------------||
E|-----------------------------------4444444444444444-6666666666666666-||


Solo: (And after, and after, and after, and after...)

G|---------------------------------------------------||
D|-----13-----13--13---11--11-11---9--9-9----9--9-9--||
A|-1111---1111--11---99--99--9---66-66-6---77-77-7---||
E|---------------------------------------------------||

solo: (Like violence, you have me...)

G|---------------------------------------------------||
D|-----13-----13--13---11--11-11---9--9-9----9--9-9--||
A|-1111---1111--11---99--99--9---66-66-6---77-77-7---||
E|---------------------------------------------------||

[Like violence]
solo: (Forever, and after. Like violence...)

G|---------------------------------------------------||
D|-----13-----13--13---11--11-11---9--9-9----9--9-9--||
A|-1111---1111--11---99--99--9---66-66-6---77-77-7---||
E|---------------------------------------------------||

solo: (Like violence, you have me, forever, and after...)

G|---------------------------------------------------||
D|-----13-----13--13---11--11-11---9--9-9----9--9-9--||
A|-1111---1111--11---99--99--9---66-66-6---77-77-7---||
E|---------------------------------------------------||

[You have me] [You have me]
solo: (Like violence, you kill me. Like violence, you kill me...)

G|---------------------------------------------------||
D|-----13-----13--13---11--11-11---9--9-9----9--9-9--||
A|-1111---1111--11---99--99--9---66-66-6---77-77-7---||
E|---------------------------------------------------||

solo: (Like violence...)

G|-------------------------------||
D|-----13-----13--13---11--11-11-||
A|-1111---1111--11---99--99--9---||
E|-------------------------------||


Chorus: (Like violence, you have me, forever, and after...)

G|---------------------------------------------------------------------||
D|---------------------------------------------------------------------||
A|-2222222222222222-4444444444444444-----------------------------------||
E|-----------------------------------4444444444444444-6666666666666666-||

chorus: (Like violence, you kill me, forever, and after...)

G|---------------------------------------------------------------------||
D|---------------------------------------------------------------------||
A|-2222222222222222-4444444444444444-----------------------------------||
E|-----------------------------------4444444444444444-6666666666666666-||


[Like violence, you have me, forever, and after...]
Chorus: (Like violence, you have me, forever, and after...)

G|---------------------------------------------------------------------||
D|---------------------------------------------------------------------||
A|-2222222222222222-4444444444444444-----------------------------------||
E|-----------------------------------4444444444444444-6666666666666666-||

[Like violence, you kill me, forever, and after...]
chorus: (Like violence, you kill me, forever, and after...)

G|---------------------------------------------------------------------||
D|---------------------------------------------------------------------||
A|-2222222222222222-4444444444444444-----------------------------------||
E|-----------------------------------4444444444444444-6666666666666666-||


End:

G|------||
D|------||
A|-2~~~-||
E|------||



Get this song at amazon.com      Ebay     Ringtones Ringtones  


Learn to play: Songwriting, Piano, Harmonica, Guitar
Also available at Muzikum: Blink 182 - Violence lyrics

Related Blink 182 Bass Tabs

Wasting Time bass
Josie (with Lyrics) bass
Carousel - Blink 182 bass
Depends bass
Alone bass
Lemmings bass
Anthem Part 2 (power Chord Style For People Who Get Bored) bass
Anthem Prt Ii bass
Time bass
Mothers Day bass
Cacophony bass
Family Next Door bass
Im Lost Without You bass
Voyer bass
Fuck A Dog bass
Rich Lips bass
Dammit (live) At The Drive In bass
Man Overboard ( From The Tab Book) bass
Dammit bass
All Of This bass


Guitar Tabs









All tabs are property and copyright of their owners. All tabs provided for educational purposes only. Privacy Policy, DMCA

Online converter - videoconverter.com