Blink 182

Up All Night Bass Tabs



More from Blink 182

Blink 182 Tabs
Blink 182 Chords
Blink 182 Bass
Blink 182 Lyrics

Intro
G |
D |--9-(x4)----8-(x4)----7-(x8)-----6-(x8)-------0-(x8)
A |
E |
First and second time^ . Third time 0 changes to a 5

Heavy riff

D |----------------------------------------------------------|
A |-------------7--7-----------------------------------------|
E |--5--4--0---------0--5--4--0--6--7--7--6--6--5--5---------|

Verse

A |---0--2--7--5---|
E |----------------|

Prechorus

G |------------------------|
D |------------------------|
A |--9--11--0--7--9--5-----|
E |------------------------|
Play each note 16 times

Chorus

G |--------------------------------------------------|
D |--------------------------------------------------|
A |----0 (x16)--------7 (x8)---------5(x8)-----------|
E |--------------------------------------------------|

Verse 2

G |-------------------------------------|
D |-----------14----------14-------14---|
A |---12-12-----12-12-------12----------|
E |-------------------------------------|
Use this pattern for the notes^ the rest of the notes are as follows

G |-------------------------------------|
D |---------11---------11-------11------|
A |---9-9-------9-9-------9-------------|
E |-------------------------------------|

G |-------------------------------------|
D |----------7-----------7--------7-----|
A |---5-5--------5-5---------5----------|
E |-------------------------------------|
Get this song at amazon.com      Ebay     Ringtones Ringtones  


Learn to play: Songwriting, Piano, Harmonica, Guitar
Also available at Muzikum: Blink 182 - Up all night lyrics

Related Blink 182 Bass Tabs

Reebok Commercial bass
Anthem bass
Every Time I Look For You bass
Here\'s Your Letter bass
Dammit Live (warped Tour) bass
Marlboro Man bass
I'm Lost Without You bass
Im Lost Without You bass
Longest Line bass
Heart\'s All Gone bass
Feeling This bass
Lemmings bass
Shut Up bass
I Know A Guy Tom, Mark, And Travis Show bass
Zulu bass
Dude Ranch Full Album - Bass Tab bass
Degenerate bass
Aliens Exist bass
Take Off Your Pants And Jacket (album) bass
All Teh Small Things bass


Guitar Tabs









All tabs are property and copyright of their owners. All tabs provided for educational purposes only. Privacy Policy, DMCA