Blink 182

Unreleased Demo (instrumental) Bass Tabs



More from Blink 182

Blink 182 Tabs
Blink 182 Chords
Blink 182 Bass
Blink 182 Lyrics



G|---6--6-6----6--6-6----3--3--3-3---------- x
D|-44-44-4-4-66-66-6-6-11-11--1 1---4--4-4-4 x 4
A|--------------------------------22-22-2-2- x
E|------------------------------------------ x

G|------------------------------------------------------------------------------------------------ x
D|------------------------------------------------------------------------------------------------ x 2
A|------------------------11111111---22222222-1----------------------------11111111---22222222-1-- x
E|-22222222-3-44444444-234--------24----------4-22222222-3-44444444-24-----------234-----------4 x

G|---6--6-6----6--6-6----3--3--3-3---------- x
D|-44-44-4-4-66-66-6-6-11-11--1 1---4--4-4-4 x 2
A|--------------------------------22-22-2-2- x
E|------------------------------------------ x

G|------------------------------------------------------------------------------------------------ x
D|------------------------------------------------------------------------------------------------ x
A|------------------------11111111---22222222-1----------------------------11111111---22222222-1-- x
E|-22222222-3-44444444-24--------24----------4-22222222-3-44444444-24-----------234-----------4 x

G|------------------------------------------------------------------------
D|-1111111111113131--------------------44444444444444443------------------
A|-----------------22222222222222222/4/-------------------4444444444444444
E|------------------------------------------------------------------------

G|------------------------------------------------------------------------
D|-1111111111113131--------------------44444444444444442------------------
A|-----------------22222222222222222/4/-------------------4444444444444333
E|------------------------------------------------------------------------

G|---6--6-6----6--6-6----3--3--3-3---------- x
D|-44-44-4-4-66-66-6-6-11-11--1 1---4--4-4-4 x 2
A|--------------------------------22-22-2-2- x
E|------------------------------------------ x

G|------------------------------------------------------------------------------------------------ x
D|------------------------------------------------------------------------------------------------ x
A|------------------------11111111---22222222-1----------------------------11111111---22222222-1-- x
E|-22222222-3-44444444-24--------24----------4-22222222-3-44444444-24-----------24-----------4 x

G|------------------------------------------------------------------------
D|-1111111111113131--------------------44444444444444443------------------
A|-----------------22222222222222222/4/-------------------4444444444444444
E|------------------------------------------------------------------------


G|------------------------------------------------------------------------
D|-1111111111113131--------------------44444444444444442------------------
A|-----------------22222222222222222/4/-------------------4444444444444333
E|------------------------------------------------------------------------

G|---6--6-6----6--6-6----3--3--3-3---------- x
D|-44-44-4-4-66-66-6-6-11-11--1 1---4--4-4-4 x 6
A|--------------------------------22-22-2-2- x
E|------------------------------------------ x

Taken from The BassMasta -- http://www.tabs-database.com



Get this song at amazon.com      Ebay     Ringtones Ringtones  


Learn to play: Songwriting, Piano, Harmonica, Guitar
More Blink 182 lyrics available at Muzikum

Related Blink 182 Bass Tabs

What Went Wrong (tabbed For Bass) bass
I Miss You (new Complete Version) bass
M + Ms 1000% bass
Give Me One Good Reason bass
Voyer bass
Wirecked Him bass
MH 4.18.2011 bass
The Grandpa Song bass
Dumpweed live bass
Whats My Age Again.....correct bass
Enthused (100% Perfect) bass
A Letter To Elise bass
Untitled bass
Wendy Clear bass
M And Ms bass
Josie bass
Don\'t Leave Me bass
Happy Holidays, You Basterd bass
Dammit (best You'll Find) bass
The Rock Show bass


Guitar Tabs









All tabs are property and copyright of their owners. All tabs provided for educational purposes only. Privacy Policy, DMCA