Blink 182

Touchdown Boy Tabs



More from Blink 182

Blink 182 Tabs
Blink 182 Chords
Blink 182 Bass
Blink 182 Lyrics

Intro: 6x
e]------------------------------------------
B]------------------------------------------
G]-99999999--88-----------------------------
A]-99999999--88--999999--77--4444--222222---
D]-77777777--66--999999--77--4444--222222---
E]---------------777777--55--6666--000000---

(00:28)

2x
e]------------------------------------------------
B]------------------------------------------------
G]-9---6-7-9------6-7-9------6-7-9------6-7-9-7-6-
A]-9----------97---------97---------97------------
D]-7----------97---------97---------97------------
E]------------75---------75---------75------------

(00:37)
2x
e]-------------------------------------------------------
B]-------------------------------------------------------
G]-------------------------------------------------------
A]-9-------9-9-9-7-7-7-6-6--99999999--9-9-9-7-7-7-6-6----
D]-9------------------------99999999---------------------
E]-7-hold-------------------77777777---------------------

e]--------------------------------------------------------
B]--------------------------------------------------------
G]--------------------------------------------------------
A]-77777777--6-6-6-7-7-7-9-9--99999999--6-6-6-7-7-7-9-9---
D]-77777777-------------------99999999--------------------
E]-55555555-------------------77777777--------------------


(00:54)


e]-------------------------------------------------------------------
B]-------------------------------------------------------------------
G]-------------------------------------------------------------------
A]-99999999-77777777-9999999-77777777-9999999-77777777-999999999999--
D]-----------------------------------------------------999999999999--
E]-----------------------------------------------------777777777777--


(01:04)
4X
e]---------------------------------------------------
B]---------------------------------------------------
G]-99--6-7-9-7-----6-7-9-7----6-7-9-7----6-7-9-7-----
A]-99-----------99---------77---------99-------------
D]-77-----------99---------77---------99-------------
E]--------------77---------55---------77-------------


(01:22)
Chorus 2x (Just the right one by one)

e]--------------------------------------------------
B]--------------------------------------------------
G]-9999999999---------------------------------------
A]-9999999999--9999999999--7777777777--9999999999---
D]-7777777777--9999999999--7777777777--9999999999---
E]-------------7777777777--5555555555--7777777777---

(01:40)
Intro 4x


((01:59) Then.. "Well Tom..."


Then at 2:14 "Loyal to his bone"
e]------------
B]------------
G]------------
A]-9999999999--
D]-9999999999--
E]-7777777777--

"I saw my friend there" (02:16) 2x
e]---------------------------------------------------
B]---------------------------------------------------
G]-99--6-7-9-7-----6-7-9-7----6-7-9-7----6-7-9-7-----
A]-99-----------99---------77---------99-------------
D]-77-----------99---------77---------99-------------
E]--------------77---------55---------77-------------


Then Chorus 2x (02:25)
e]--------------------------------------------------
B]--------------------------------------------------
G]-9999999999---------------------------------------
A]-9999999999--9999999999--7777777777--9999999999---
D]-7777777777--9999999999--7777777777--9999999999---
E]-------------7777777777--5555555555--7777777777---


Then Intro 4x hold last chord (Em)


If you cant figure out the strumming, listen to the song.. email
Enjoy! :)
Get this song at amazon.com      Ebay     Ringtones Ringtones  


Learn to play: Songwriting, Piano, Harmonica, Guitar
Also available at Muzikum: Blink 182 - Touchdown Boy lyrics

Related Blink 182 Tabs

Easy Target tabs
Dumpweed live tabs
Adam S Song With Complete Interlude tabs
Blink 182 tabs
Instrumental Song tabs
Touchdown Boy Intro-easy tabs
Online Songs tabs
F k A Dog tabs
Story Of A Lonely Guy tabs
Country Song tabs
Apple Shampoo tabs
Carousel tabs
Josie tabs
Degenerate tabs
Growing Up tabs
My Pet Sally tabs
Dysentery Gary Intro tabs
First Day tabs
M&ms tabs
Dont Tell Me That Its Over tabs


Guitar Tabs









All tabs are property and copyright of their owners. All tabs provided for educational purposes only. Privacy Policy, DMCA